Me Haces Doler, El Dipy (tablatura)

Autor: Enzo21xP | 21248 visualizaciones



INTRO:

         C               G                Am
e|--------------0-|---------------|--------------|
B|---1-----1--5---|-0-----0--1--5-|-1------------|
G|------0---------|----0----------|-----1h2------|
D|----------------|---------------|--------------|
A|---3------------|-2-------------|-0------------|
E|----------------|---------------|--------------|


         F               
e|---------1---------|
B|-1-----1---1-------|
G|----2----------2---|
D|------------------3|
A|-------------------|
E|-1-----------------|          x2

C                  
Mirame estoy llorando
G
terminando nuestro amor,
Am
fue tan magico encontrarte
F
y hoy se termino.

C
Cuantas veces nos juramos
G
no terminar jamas,
Am
y hoy estoy destrosado
F
ya no me quieres mas.

Dm                  G
Si, parece que fue ayer
Dm                  G
que abrazabas mi piel.
Dm                    G          C      Am 
Hoy, me faltas en mi cama por las noches,
          
no quiero despertar en las mañanas.
        F
Dime Porque
        G
Porque te vas.

C
Cuando decias que me amabas
G
y respondia yo tambien.
Am
Me abrazabas, lo sentia en mi piel.

C
Estabamos enamorados, sin nada que temer,
G
y si tanto me amabas, que paso con el ayer.
Am
Por que me haces doler
F
Todo mi ser.

C
Me decias que te has cansado
G
que no quieres seguir mas,
Am
sin ti yo no vivo
F
no quiero terminar.

C
Te vas con los recuerdos
G
y con mi corazon,
Am
no me dejes mi vida
F
te lo pido por favor.

Dm                  G    
Si, tienes que comprender
Dm                  G
que te llevo en la piel.
Dm                   G        C      Am
Yo, te quiero en mi cama por las noches,
                  Am
y mirarte a la cara en las mañanas.
         F         G
Me morire, si te vas
     G
(no, nooo)

C                    G  
Si hay otra persona, te perdonare
Am                   F
si kieres estar sola, el tiempo te dare.

C                    G
No te vayas mi vida, porque solo quedare
Am                        F
y si no hay otra salida, en otra vida estare.



Me morire!
Y no estaree!! (noo)


         C               G                Am
e|--------------0-|---------------|--------------|                         B|---1-----1--5---|-0-----0--1--5-|-1------------|
G|------0---------|----0----------|-----1h2------|
D|----------------|---------------|--------------|
A|---3------------|-2-------------|-0------------|
E|----------------|---------------|--------------|


         F               
e|---------1---------|
B|-1-----1---1-------|
G|----2----------2---|
D|------------------3|
A|-------------------|
E|-1-----------------|          x2


Bueno espero que me haya salido bien, (es mi primer cancion que publico) disculpen si tengo algunos errores... Cualquier cosa agreguenme en mi face: Enzo Mendoza, Machagai-Chaco Argentina.





Calificar esta versión:
Aviso: Este fichero es trabajo propio de su transcriptor y representa su interpretación personal de la canción. El material contenido en esta página es para exclusivo uso privado, por lo que se prohibe su reproducción o retransmisión, así como su uso para fines comerciales.