Fui Yo, El Cuarteto De Nos (acordes)

Autor: Anónimo | 18424 visualizaciones

aasosbccsosmefsos


Intro:

Riff: Acompañado de E.

1|-----------------------------------|
2|-----------------------------------|
3|-----------------------------------|
4|-----------------------------------|X2
5|----------------5------------------|
6|--0-0-3-4-5-6-7-----0-0-3-4-5-6-7--|

E
Yo maté a Kennedy pero fue de rebote
en realidad le disparé a la Jacqueline
A
me pasé un poco de la raya en las pastillas
E
que le di para clavarme a la Marliyn.

        C                       B
Y como Dios no me escuchaba decidí matar al Papa
     A#                         A
pero me ganó de mano un turco hereje pedazo de papanata.

Riff

E
Maté a Gardel porque el tipo desafinaba
y a Lennon porque Imagine era una idiotez
A
reventé el Challenger porque adentro viajaba
E
una maestra que yo  odiaba en mi niñez.

        C                       B
Y repodrido en plena dictadura yo resulté ser el Kia
A#                            A
que escribió “milicos putos” en la página del diario El Día.

Riff 2:

1|-------------------|
2|-------------------|
3|-------------------|
4|-------------------|
5|------------7-6-5--|
6|--0-0-3-5-7--------|

           A       B            E      C#m
No busquen más, el culpable fui yo
            A     C*         B
siento causar tanta desilusión.

Riff

E
Como tapaba la vista a mi residencia
a las dos torres gemelas se la di
A
odio la caridad y la beneficencia
E
por eso corté el freno del auto de Lady Di

         C                          B
Y maté a Gandhi porque me pegó una vez en una orgía
           A#
y a Martin Luther King
                A
porque tenía la poronga más grande que la mía

Riff 2

           A       B            E      C#m
No busquen más, el culpable fui yo
            A     C*         B
siento causar tanta desilusión.


-Acompañado de E
1|-----------------------------------|
2|-----------------------------------|
3|-----------------------------------|
4|-----------------------------------|X2
5|----------------5------------------|
6|--0-0-3-4-5-6-7-----0-0-3-4-5-6-7--|

-Acompañado de A
1|-----------------------------------|
2|-----------------------------------|
3|-----------------------------------|
4|----------------5------------------|
5|--0-0-3-4-5-6-7-----0-0-3-4-5-6-7--|
6|-----------------------------------|

-Acompañado de E
1|-----------------------------------|
2|-----------------------------------|
3|-----------------------------------|
4|-----------------------------------|
5|----------------5------------------|
6|--0-0-3-4-5-6-7-----0-0-3-4-5-6-7--|

C   B   A#  A

Riff 2

Último Coro:

           A       B            E      C#m
No busquen más, el culpable fui yo
            A     C*         E    F#
siento causar tanta desilusión.
           A       B            E      C#m
No busquen más, el culpable fui yo
            A     C*         B
siento causar tanta desilusión.

1|-----------------------|
2|-----------------------|
3|-----------------------|
4|-----------------------|
5|----------------5------|
6|--0-0-3-4-5-6-7-----0--|


Recuerden: “C*” se pisa en el tercer traste como un “B”.


David Noa,@DNoaR en Twitter!





Calificar esta versión:
Aviso: Este fichero es trabajo propio de su transcriptor y representa su interpretación personal de la canción. El material contenido en esta página es para exclusivo uso privado, por lo que se prohibe su reproducción o retransmisión, así como su uso para fines comerciales.