En Estado Lunatico, El Canto Del Loco (acordes)

Autor: Anónimo | 35175 visualizaciones

INTRO: 

 uh uh
e-------------------------------
B-------------------------------
G-------------------------------
D-------------------------------  x2
A-------------------------------
E---1-1-1-1--2-2-2-2-3-0--------

(Toda el verso 1 y 2 la intro)

Encontre la manera de poder crecer no quedarme pequeño
a tu lado, que a mi me afecta todo y voy a entrar en 
estado lunatico

(Punteo)                                      

                                        lam
 
e-------------------------------------|-----0----|
B-------------------------------------|-----1----|
G----------0--------------0-----------|-----2----|
D------2--------------0---------------|-----2----|
A---3------------2---------------0----|-----0----|
E-------------------------------------|-----0----|
   (Despues del punteo se toca 2 veces lam)

verso 2:

Y ahora sé, lo que quiero y debo de hacer, que esta
historia gobierna mi estado y se apodera de todo y me 
siento cerrado y voy a entrar en estado neurotico

(punteo)

(estribillo)
   MIm                        Do         Re
Y volver a ver saber si eres tu mirarte a la cara y 
                                Sol      Do         Re
pensar que ya nada me importa, ni tu ni yo como dice
    Sol     Do    Re      Sol   Do     Re-REsus7-
tu canción, ni tu ni yo volveremos a ser dos. Y que
 Mim                sol            Mim     Sol      Mim
quiero pensar que salga mejor que quiero reirme de todo 
      Sol       Do  Re-Resus4-Re
sentirme romanticoooooo.



verso 1:

Nada mas solo queda poder olvidar y que volvamos a 
verlo de lejos ahora nos separamos y me siento atrapado
y voy a entrar en estado patetico.

(PUNTEO)

(ESTRIBILLO)

SOLO 

(ESTRIBILLO)




               EL CANTO DEL LOCO

                  GIRA A CONTRACORRIENTE 2002



ME HA COSTADO UN MONTON SACARLA, PERO CREO QUE MERECE 
LA PENA




**************************
Diego Pérez Callejo

Madrid 23-11-03
**************************


ACORDES

   mim      sol     do    re      re sus7      re sus4
e---7--------3------3------5--------0------------3---------
B---8--------3------5------7--------3------------3-------
G---9--------4------5------7--------2------------2------
D---9--------5------5------7--------0------------0-------
A---7--------5------3------5--------0------------0------
E---7--------3------3------5--------0------------0--------

Fuente original: LaCuerda
Colaborador original: Diego Perez Callejo [eskatxo@terra.es]
Calificar esta versión:
Aviso: Este fichero es trabajo propio de su transcriptor y representa su interpretación personal de la canción. El material contenido en esta página es para exclusivo uso privado, por lo que se prohibe su reproducción o retransmisión, así como su uso para fines comerciales.