El Regreso, El Bordo (tablatura)

Autor: van_halen | 16979 visualizaciones

INTRO:
e|-----------------------------------------|
B|-----------------------------------------|
G|-1-1-1-------------1-1-1--2-2-2-2-0------|
D|-2-2-2--0-2-3-2-0--2-2-2------------3-2--|
A|-2-2-2-------------2-2-2-----------------|
E|-0-0-0-------------0-0-0-----------------|

e|------------------------------------|
B|------------------------------------|
G|---------0-2-0----1-1-1-------------|
D|3-3-3--3-------3--2-2-2--0-2-3-2-0--|
A|3-3-3-------------2-2-2-------------|
E|1-1-1-------------0-0-0-------------|

e|--------------------------------------------|
B|--------------------------------------------|
G|---------1---1-2-4-2-4-5-4-2-1/2/1---1-1-1--|
D|-2-1-2-3---3-------------------------2-2-2--|
A|-------------------------------------2-2-2--|
E|-------------------------------------0-0-0--|

e|-----------------------------------------|
B|-----------------------------------------|
G|-5-5-5-5-4-2-1-2-0------0-2-0-----1-1-1--|
D|-------------------3--3--------3--2-2-2--|
A|----------------------------------2-2-2--|
E|----------------------------------0-0-0--|

-------------------------------------------------------------------------

E
Ya Regrese, a este mundo de locos
F
A la tierra que un dia yo quise dejar pero nunca olvide
                E*-D#-E*   F*           E*-D#-E*              F*
El pantano del hambre, la miseria enjaulada
F                                                      E
La mentira que al fin aprendio a caminar por las calles del odio

            Am                                      G
y por eso volvi del silencio mas puro a un terrible boxeo
         F                                         C
porque solo al luchar sobrevive mi alma a su eterna condena
    Am                                          G
Un dia llore cuando supe cual es mi papel en la historia
         F                                         C
si me toca morir quiero que sea asi el paraiso soñado
        Dm                              Am                         F
Solo veras energia flotando en un mar de luz que me invita a nadar

C
Me quedan los sueños que nunca soñé,
G
Me queda ese beso que nunca daré,
A#                                                F
Me queda las cosas que sólo vos ves y por eso yo canto
C
Me queda tatuada en la piel tu canción,
G
Me queda pelear cada día de sol,
A#
Me queda el lugar que al final encontré,
            F
Donde solo el que siente me podría ver
            E
Así yo volveré..

-------------------------------------------------------------------------

e|------------------------------------------------------------------|
B|------------------------------------------------------------------|
G|-1-1-1-------------1-1-1--2-2-2-2-0---------------0-2-0----1-1-1--|
D|-2-2-2--0-2-3-2-0--2-2-2------------3-2--3-3-3--3-------3--2-2-2--|
A|-2-2-2-------------2-2-2-----------------3-3-3-------------2-2-2--|
E|-0-0-0-------------0-0-0-----------------1-1-1-------------0-0-0--|

-------------------------------------------------------------------------

y Asi sigue el valiente que amasija el ratón
Lava polarizados tras un monitor porque todos lo saben
el rincon mas seguro de la inseguridad
es mejor ser el rastro de un pobre puñal que una inutil espina

No pienso callar ante nada si todo es el juego de pocos
nos cambian el rumbo con solo apretar algun triste boton
No pienso dejar de nombrar sangijuelas que buscan la sangre
Para hacer negocios con mi corazon y venderte las sobras
de la soledad... Llorara la pureza de todas las cosas que nunca seran
Y se mueren sin ver la verdad todavia hay mucho que hablar

Me quedan los sueños que nunca soñé,
Me queda ese beso que nunca daré,
Me queda las cosas que sólo vos ves y por eso yo canto
Me queda tatuada en la piel tu canción,
Me queda pelear cada día de sol,
Me queda el lugar que al final encontré,
Donde solo el que siente me podría ver

C
Me quedan los sueños que nunca soñé,
G
Me queda ese beso que nunca daré,
A#                                                F
Me queda las cosas que sólo vos ves y por eso yo canto
C
Me queda tatuada en la piel tu canción,
G
Me queda pelear cada día de sol,
A#
Me queda el lugar que al final encontré,
            F
Donde solo el que siente me podría ver,
             C                G                A#-C-D-E*-F*-G*
Así yo volveré.. Así yo volveré.. Así yo volveré.. Ohohoh

-------------------------------------------------------------------------

FINAL: C
e|----------------|
B|----------------|
G|----------------|
D|-3-2---3-2-0----|
A|-----3-------3--|
E|----------------|

-------------------------------------------------------------------------
   E*        F*        G*
e|----|   e|----|   e|-----|
B|----|   B|----|   B|-----|
G|-9--|   G|-10-|   G|-12--|
D|-9--|   D|-10-|   D|-12--|
A|-7--|   A|-8--|   A|-10--|
E|-x--|   E|-x--|   E|--x--|
-------------------------------------------------------------------------



ESPERO QUE LES SIRVE LOCO
SUERTE :D
Calificar esta versión:
Aviso: Este fichero es trabajo propio de su transcriptor y representa su interpretación personal de la canción. El material contenido en esta página es para exclusivo uso privado, por lo que se prohibe su reproducción o retransmisión, así como su uso para fines comerciales.