Así, El Bordo (tablatura)

Autor: santii_25 | 15858 visualizaciones

Intro:

Riff                                                                   X2
E|----------------------------------|-----------------------------------|
B|----------------------------------|-----------------------------------|
G|-2---------2-------7---5^---------|-2---------2-------7---5/6/5/6-----|
D|-2---------2-------7---5^---------|-2---------2-------7---5/6/5/6-----|
A|-0---------0-------5---3^---------|-0---------0-------5---3/4/3/4-----|
E|------3h0-----3h0-----------------|------3h0-----3h0------------------|







A
Así, se va, el vaso entre sus dientes
la boca que se mueve y esos labios que quisieran más de vos
A
que estas mirando entre su ropa, su cuerpo se sacude
y se menea como loca porque


estibillo con base de riff:

Así, así, yo sé que así le gusta, así
Bailando en mi cocina sin más nada que yo encima nada puede ser mejor.
Así, así, yo sé que así le gusta así
Que te diga que hoy no quiere no te dice que no puede terminar
así con vos.

Riff

A
Así, se va, el vaso entre sus dientes
la boca que se mueve y esos labios que quisieran más de vos
A
que estas mirando entre su ropa, su cuerpo se sacude
y se menea como loca porque

Riff
Así, así, yo sé que así le gusta, así
Bailando en mi cocina sin más nada que yo encima nada puede ser mejor.
Así, así, yo sé que así le gusta así
Que te diga que hoy no quiere no te dice que no puede terminar
así con vos.


                                            X4
E|-----------5--------5--------5--------------|
B|--------------8--------8--------8-----8-----|
G|--------6--------6--------6--------6--------|
D|--5--7--------------------------------------|
A|--------------------------------------------|
E|--------------------------------------------|

Riff
Así, así, yo sé que así le gusta, así
Bailando en mi cocina sin más nada que yo encima nada puede ser mejor.
Así, así, yo sé que así le gusta así
Que te diga que hoy no quiere no te dice que no puede terminar
así con vos.



y cuando grita en el final:
                                                                 X2
E|----------------------------------|-----------------------------|
B|----------------------------------|-----------------------------|
G|-2---------2-------7---5^---------|-2---------2-------7---5-----|
D|-2---------2-------7---5^---------|-2---------2-------7---5-----|
A|-0---------0-------5---3^---------|-0---------0-------5---3-----|
E|------3h0-----3h0-----------------|------3h0-----3h0------------|

Comentarios del colaborador: La Cuerda.net

Calificar esta versión:
Aviso: Este fichero es trabajo propio de su transcriptor y representa su interpretación personal de la canción. El material contenido en esta página es para exclusivo uso privado, por lo que se prohibe su reproducción o retransmisión, así como su uso para fines comerciales.