Todo Tiene Su Fín, El Barrio (acordes)

Autor: Anónimo | 35444 visualizaciones

Versión del clásico TODO TIENE SU FIN de Medina Azahara.

La versión cantada por el barrio, va mas baja de tono, y empieza asin:


E|-----------0------------------0-----------------0-----------------0----------
B|------1-----1--1----------1----1--1--------1-----1--1---------1-----1--1-----
G|-----4-4-----4--4--------4-4----4--4------4-4-----4--4-------4-4-----4--4----
D|----2---2--------2------2---2-------2----2---2--------2-----2---2--------2---
A|---0-------------------0-----------------------------------------------------
E|----------------------------------------3-----------------3------------------

E|-----------0------------------0-------------------0--------------------------
B|------0-----0--0---------0-----0--0----------0-----0--0----------------------
G|-----4-4-----4--4-------4-4-----4--4--------1-1-----1--1---------------------
D|----0---0--------0-----0---0--------0------0---0--------0--------------------
A|-----------------------------------------------------------------------------
E|---1------------------1-------------------0--------------------0-------------


La voz 1, sigue los siguientes acordes : La Menor, Sol Mayor, Fa Mayor, Mi 7ª
La voz 2, seguiria estos acordes + o - : Si Menor, La Mayor, Sol Mayor, Fa# 7

[ si la quereis tocar como el barrio, utilizar la VOZ 1 ]

SIENTO QUE YA LLEGA LA HORA
QUE DENTRO DE UN MOMENTO
TE ALEJARÁS AL FIN

QUIERO QUE TUS OJOS ME MIREN
Y QUE SIEMPRE RECUERDES
EL AMOR QUE TE DI

PERO, QUISIERA QUE ESE DIA
AL RECORDAR COMPRENDAS
TODO ESTO QUE TE DI

SOLO ME QUEDA LA ESPERANZA
QUE COMO EL VIENTO AL HUMO
TE APARTE YA DE AQUI

JURO QUERERME Y NO COMPRENDO
PORQUE NO HA SIDO ASIN INN

Y ES QUE ME DA IGUAL
A MI YA NADA NADA ME IMPORTA
TODO TIENE SU FIN INN

Y PERO, QUISIERA QUE ESE DIA
AL RECORDAR COMPRENDAS
TODO ESTO Q TE DI

SOLO ME QUEDA LA ESPERANZA
QUE COMO EL VIENTO AL HUMO
TE APARTE YA DE AQUI

JURO QUERERME Y NO COMPRENDO
PORQUE NO HA SIDO ASI IIII

Y ES QUE ME DA IGUAL
A MI YA NADA NADA ME IMPORTA
TODO TIENE SU FIN IIN
NOU NO NO NO

SIENTO QUE YA LLEGA LA HORA
QUE DENTRO DE UN MOMENTO
TE ALEJARAS AL FIN

QUIERO QUE TUS OJOS ME MIREN
Y QUE SIEMPRES RECUERDES
EL AMOR QUE TE DI


PORQUE Y O SIENTO QUE YA LLEGO LA HORA
Y TE ALEJARAS AL FIN

YO QUIERO , YO QUIERO QUE TUS OJOS A MI ME MIRE
Y RECUERDEN EL AMOR, EL AMOR QUE TE DII
NOU, NO NOO


** ME ENCANTA ESTE TEMA, AÑEJO Y ACTUAL **

Un saludo para tod@s y en especial a mi mujer que esta malita, para que se me ponga buena pronto.

muaks shosholindo
Calificar esta versión:
Aviso: Este fichero es trabajo propio de su transcriptor y representa su interpretación personal de la canción. El material contenido en esta página es para exclusivo uso privado, por lo que se prohibe su reproducción o retransmisión, así como su uso para fines comerciales.