Solo Tu Voz, Ekstasis Kaf (tablatura)

Autor: ezeku | 20714 visualizaciones

BUENO EL INTRO QUE LLEVA ES EN VIOLIN, EN PUNTEO SERIA MAS O MENOS ASI:

 e-5-3-5-7-----|-5-3-5-7-------|-5-3-5-7-10--|
 b---------5---|---------5-3-2-|-------------|
 g-------------|---------------|-------------|  (x2)
 d-------------|---------------|-------------|
 a-------------|---------------|-------------|
 E-------------|---------------|-------------|

intro (notas):   A Em A C

G               D        Em    C   G
 Escucha mi clamor, oh Dios
G                D                 Em    C
 Yo solo aqui estoy, en tu habitacio-o-o-on
C          D   Em           D  C
 Esperandote-e-e, esperandote-e-e


G               D        Em    C   G
 Escucha mi clamor, oh Dios
G                D                 Em    C
 Yo solo aqui estoy, en tu habitacio-o-o-on
C          D   Em           D  C     C
 Extrañandote-e-e, esperandote-e-e


C            G            D
 Escucho tu voz en el desierto
             Em            C
 Escucho tu voz en la tormenta
             G             A
 Escucho tu voz que me alienta
          C
 Solo tu voz

C            G             D
 Escucho tu voz que me alienta
             Em             C
 Escucho tu voz que me alimenta
             G             A
 Escucho tu voz en el desierto
          C
 Solo tu voz

(A Em A C)
 e-5-3-5-7-----|-5-3-5-7-------|-5-3-5-7-10--|
 b---------5---|---------5-3-2-|-------------|
 g-------------|---------------|-------------|  (x2)
 d-------------|---------------|-------------|
 a-------------|---------------|-------------|
 E-------------|---------------|-------------|

G               D        Em    C   G
 Escucha mi clamor, oh Dios
G                D                 Em    C
 Yo solo aqui estoy, en tu habitacio-o-o-on
C          D   Em           D  C     C
 Extrañandote-e-e, esperandote-e-e


G               D        Em    C   G
 Escucha mi clamor, oh Dios
G                D              Em    C
 Yo solo aqui estoy, en tu corazo-o-o-on
C          D   Em               D    C
 Disfrutandote-E-E, disfrutandote  A ti


C            G            D
 Escucho tu voz en el desierto
             Em            C
 Escucho tu voz en la tormenta
             G             A
 Escucho tu voz que me alienta
          C
 Solo tu voz

C            G             D
 Escucho tu voz que me alienta
             Em             C
 Escucho tu voz que me alimenta
             G             A
 Escucho tu voz en el desierto
          C
 Solo tu voz

(A Em A C)
 e-5-3-5-7-----|-5-3-5-7-------|-5-3-5-7-10--|
 b---------5---|---------5-3-2-|-------------|
 g-------------|---------------|-------------|  (x2)
 d-------------|---------------|-------------|
 a-------------|---------------|-------------|
 E-------------|---------------|-------------|
Calificar esta versión:
Aviso: Este fichero es trabajo propio de su transcriptor y representa su interpretación personal de la canción. El material contenido en esta página es para exclusivo uso privado, por lo que se prohibe su reproducción o retransmisión, así como su uso para fines comerciales.