Un Día De Música Enferma, Ekhymosis (tablatura)

Autor: Anónimo | 31929 visualizaciones



En primer lugar la guitarra va medio tono mas abajo
Esta es la versión correcta, les aseguro que si la tocan como está
y escuchando los pequeños detalles, la sacaran muy bien.
Dedicada a Cuervito, cuervo, heverson y Elkin
que me obligaron a sacarla jejeje
Y a la Popochita

Intro (GUITARRA 1)
             G/E-F/E-Am-G          G/E-F/E-Am-G            G/E-F/E-Am-G
Eb---------------------------------------------------------
Bb--------1----------------------3-----------------------3-
F#----0h2--------------------2h4---------------------2h4---
C#--3----------------------5-----------------------5-------
G#-3----------------------5-----------------------5--------
Eb---------------------------------------------------------

GUITARRA 2
Eb------5-----------------------------------------------5--------------
Bb----8------------------5h6-5------------------------8----------------
F#--5-----7/8/7-5--5-----------5-----7h5---5--------5------7/8/7-5--5--
C#-------------------7-5---------7-5-----7---7-5-----------------------
G#---------------------------------------------------------------------
Eb---------------------------------------------------------------------

Eb------------------------7h8p7----------------------------------------
Bb-----5h6-5-----5h6-6/8--------8p7-----8/5----------------------------
F#-----------5h7--------------------9----------------------------------
C#-7-5-----------------------------------------------------------------
G#---------------------------------------------------------------------
Eb---------------------------------------------------------------------


G/E:X55430
F/E:X33210
Am :X02210
G  :320033

riff 1 GUITARRA 2
Eb--------------------
Bb--5h6p5-------------
F#--------5------------
C#----------7-5---------
G#--------------------
Eb--------------------

riff 2 GUITARRA 2
Eb--------------------
Bb--------------------
F#------5-------------
C#--5h7---7--5h7------
G#--------------------
Eb--------------------

G/E        F/E    riff 1   Am         G  riff2
   Con el tiempo             he aprendido
G/E          F/E  riff 2   Am             G riff 2...
   Que en la vida            no todo es amor...

CORO:
 C                     G
   Hoy no quiero cantar  a los violentos
 C                   G
   Solo quiero llorar a todos los muertos
Am                   G
   Es un día estrecho de música enferma
 C                   G              Am...
   Lloras tú lloro yo tanto dolor....


En la primera pausa en la menor va esto

Eb--------------------
Bb--5h6p5-------------
F#--------5-----------
C#----------7-5/7-----
G#--------------------
Eb--------------------

G/E        F/E    riff 1   Am         G  riff2
   Me levanto               De la cama
G/E          F/E  riff 2   Am             G riff 2...
   Con la idea               De no reaccionar


CORO:
 C                     G
   Hoy no quiero cantar  a los violentos
 C                   G
   Solo quiero llorar a todos los muertos
Am                   G
   Es un día estrecho de música enferma
 C                   G              Am
   Lloras tú lloro yo tanto dolor


En la segunda pausa en la menor, empieza el solo

SOLO
Eb---8h10p8------------8h10p8----------8------
Bb--10------10-8h10------------10-8h10--------
F#--9-----------------------------------------
C#--------------------------------------------
G#--------------------------------------------
Eb--------------------------------------------

Eb------5----------------------------------------------5---------------
Bb----8------------------5h6-5-----------------------8-----------------
F#--5-----7/8/7-5--5-----------5-----7p5--5--------5------7/87-5--5---
C#-------------------7-5---------7-5----7---7-5------------------------
G#---------------------------------------------------------------------
Eb---------------------------------------------------------------------

Eb------------------------7h8p7------------8888/-8888--10h12p10-8-10---
Bb-----5h6-5-----5h6-6/8--------8p7---8/5--8888/-8888------------------
F#-----------5h7--------------------9----------------------------------
C#-7-5-----------------------------------------------------------------
G#---------------------------------------------------------------------
Eb---------------------------------------------------------------------


Eb----8----------------------------------------------------------------
Bb-10---10/--------------------------------5b6-5-----5h6p5------------
F#-----------7h8p7-5-7-------5--------7b8-7-------5---------5-------5h7
C#-----------------------5h7---7-5h7--7b8-7-------------------7-5h7----
G#---------------------------------------------------------------------
Eb---------------------------------------------------------------------

Eb-----8----7----------------------------------------------------------
Bb-------------8---10--------------------------------------------------
F#---9----7-----------7h8p7-5---5--------------------------------------
C#----------------------------7-----------------------------------------
G#---------------------------------------------------------------------
Eb---------------------------------------------------------------------

Aqui empieza de nuevo el CORO en C
y termina

Gracias cualquier cosa dospeeme@hotmail.com





Calificar esta versión:
Aviso: Este fichero es trabajo propio de su transcriptor y representa su interpretación personal de la canción. El material contenido en esta página es para exclusivo uso privado, por lo que se prohibe su reproducción o retransmisión, así como su uso para fines comerciales.