Sangre De Rata, Ekhymosis (acordes)

Autor: Anónimo | 43558 visualizaciones

asos5c5dsos5d5f5


Intro:

e -------------6---------------6-------
B-------6-------6-------6------6----6
G---------7--------7-8----8------7--         [Fig1]
D---8---------------------------------
A-------------------------------------
E ------------------------------------
[esta progresión va en la primera Y tercera estrofa y se repite constantemente 4 veces en el intro y 4 en las estrofas]

[Fig1]
Pacto de sangre esencia de dolor  


De tu cabello  cinco pelos  sangre de rata
[fig2]
e-----------13-----11------10------10-------------6---------------6-------
B-----11------11------11-----11-13----------6-------6-------6------6----6
G-10-----10-----10------10--------------------7--------7-8----8------7--
D---------------------------------------8---------------------------------
A-------------------------------------------------------------------------
E-------------------------------------------------------------------------
[esta progresión acompaña la segunda y la cuarta estrofa]


[fig2]
Por lo que has hecho y has desecho


Te voy a hundir en este hueco 


Para decirte y que aprendas 



Pre-coro:
F5         D#5           D5    D#5  


Que quien  ríe de ultimo ríe mejor 


F5         D#5          A#5


No gastes más tu lengua hoy 

[Fig1]
Ojos de gato 3 velas de color 
Y en tu foto un agujero 
Para hechizarte y que aprendas 
 
Pre-coro:
F5         D#5           D5    D#5  


Que quien  ríe de ultimo ríe mejor 


F5         D#5          A#5


No gastes más tu lengua hoy 

Coro:
F5        D#5        D5    D#5  


Dime con quien andas y te diré


F5         D#5           A#5.....[muting]


Quien eres tú y quien soy yo


D#5       F5        A#5           D#5


No voy a callar con más ganas gritaré 


   D5    C5  A#5


De_ja    vi_vir

Fig1 [x4]
Fig2
Tu profecía sumada a tu ambición 
Te llevaran rumbo a la ruina
mejor escucha y aprende

Pre-coro:
F5         D#5           D5    D#5  


Que quien  ríe de ultimo ríe mejor 


F5         D#5          A#5


No gastes más tu lengua hoy 

Coro:
F5        D#5        D5    D#5  


Dime con quien andas y te diré


F5         D#5           A#5.....[muting]


Quien eres tú y quien soy yo


D#5       F5        A#5           D#5


No voy a callar con más ganas gritaré 


   D5    C5  A#5


De_ja    vi_vir

D#5       F5        A#5           D#5


No voy a callar con más ganas gritaré 


   D5    C5  A#5


De_ja    vi_vir
D5    C5  A#5


De_ja    vi_vir

Final: F5-D#5[X3]A#5

Las notas están en quintas pues la mitad de la canción es tocada en electrica.
Acordes:
D5: X57XXX
D#5:X68XXX
A#5:68XXXX
F5: X810XXX
C5: X35XXX

William castillo
 willcas22@hotmail.com





Calificar esta versión:
Aviso: Este fichero es trabajo propio de su transcriptor y representa su interpretación personal de la canción. El material contenido en esta página es para exclusivo uso privado, por lo que se prohibe su reproducción o retransmisión, así como su uso para fines comerciales.