I'm Blue, Eiffel 65 (tablatura)

Autor: gogeta1 | 25237 visualizaciones



Bueno aqui les dejo un aporte
 espero que les funcione
 es la primera tablatura que
 subo

                                                        x3
 -----------------------------------------------------
 ----------------1--------------------3--4------3--1--
 --3-------0--3----------2--3--(0)--3--------(0)------
 -----(0)-----------(3)-------------------------------
 -----------------------------------------------------
 -----------------------------------------------------
 
(1)Yo listen           up,        here's a story,  about a little
(2)     guy     that lives        in a blue world.      And all
(3)     day and all night and everything he sees is just


                                                      
 -----------------------------------------------------
 ----------------1--------------------3--4------3--1--
 --3-------0--3----------2--3--(0)--3--------(0)------
 -----(0)-----------(3)-------------------------------
 -----------------------------------------------------
 -----------------------------------------------------

 blue.   Like  him           inside    and outside

e |----------------------------------------------|
B |------------1----------------3-4----3-1-------|
G|---3----0-3-------2-3----0-3-----(0)-----------|   x3
D|-----(0)--------(3)-----(0)--------------------|
A |----------------------------------------------|
E |----------------------------------------------|
(1)     Blue     his    house with a       blue little window and a
(2)     blue Corvette          and everything is blue for him
(3)           and his-self     and everybody around cus he ain't


 -----------------------------
 -----------------------------
 --3------0--3--2-------------
 -----(0)----------(3)--0--5--
 -----------------------------
 -----------------------------

  got           nobody        to listen....(listen,listen,listen,listen)





Calificar esta versión:
Aviso: Este fichero es trabajo propio de su transcriptor y representa su interpretación personal de la canción. El material contenido en esta página es para exclusivo uso privado, por lo que se prohibe su reproducción o retransmisión, así como su uso para fines comerciales.