Society (solo), Eddie Vedder (tablatura)

Autor: tularga | 19979 visualizaciones

Primera vez que subo una tablatura, la saqué recién y como no encontré ninguna 100% correcta en internet, decidí subirla, ya que es bastante precisa.

Eddie Vedder - Society solo

E|----------------------------------------------------------------------
B|--------------------------------7v-------7--10----10--10/12--12--10v--
G|-------7v----7--7--9--9----7h9--------7-------------------------------
D|--7h9-----------------------------------------------------------------
A|----------------------------------------------------------------------
E|----------------------------------------------------------------------

E|-------------------------------------------------------------------------------------
B|-----7--8--7------------7----7--7--7-------------------------------------------------
G|--7-----------9---7--9----------------9--7-------------7----7--9b10r9----9--9--7-----
D|--------------------------------------------9v----7h9-----------------------------9--
A|-------------------------------------------------------------------------------------
E|-------------------------------------------------------------------------------------

E|--------------------------------------------------------------------
B|--------------------------------------------------------------------
G|--12--12----12----12--12p11----11--11--9--7--9v------9--9b10--7-----
D|-----------------------------------------------------------------9--
A|--------------------------------------------------------------------
E|--------------------------------------------------------------------

Un saludo especial a Javi, Te quiero mucho y muy feliz primer mes.


Saludos cordiales!
Calificar esta versión:
Aviso: Este fichero es trabajo propio de su transcriptor y representa su interpretación personal de la canción. El material contenido en esta página es para exclusivo uso privado, por lo que se prohibe su reproducción o retransmisión, así como su uso para fines comerciales.