Amor De Arena, Duo Romance (tablatura)

Autor: hebert rojas | 27360 visualizaciones



INTRO:

E|------0/2--2-2-2-0---0--------0-3--3-3-3-2-0-0/2-2-0---------|
B|----3--------------3---3-2--2--------------------------------|
G|--2----------------------------------------------------------|
D|-------------------------------------------------------------|
A|-------------------------------------------------------------|
E|-------------------------------------------------------------|

E|------0/2--2-2-2-0---0--------0-3--3-3-3-2-0-0/2-2-0---------|
B|----3--------------3---3-2--2------------------------2-3-----|
G|--2----------------------------------------------------------|
D|-------------------------------------------------------------|
A|-------------------------------------------------------------|
E|-------------------------------------------------------------|

  D                 A
Hoy tengo pena en el alma
 G        C     A
Tu te iras y jamas volveras a mi
     D                 A
Ya no me queda mas lagrimas
G          D      A
Con su adios ella se lo llevououo  (BIS) creo

      D        Bm
Y las olas han borrado
    F#m
de la arena nuestro amor
       Bm         F#m
Y ese corazon tatuado
   G           A
en  aquel arbol, solo esta
    D                A
Como hare para poder olvidarte
       G               D     A
Como hare para poder vivir sin ti
        D                A
Sin tu amor nada tiene sentido
      G                   D    G
Corazon ya no me hagas sufrir asi...





Calificar esta versión:
Aviso: Este fichero es trabajo propio de su transcriptor y representa su interpretación personal de la canción. El material contenido en esta página es para exclusivo uso privado, por lo que se prohibe su reproducción o retransmisión, así como su uso para fines comerciales.