Y Si Supieras, Duo Pata Amarilla (tablatura)

Autor: Anónimo | 25476 visualizaciones



BUENO AMIGOS  ES LO PRIMERO QUE PUBLICO  EN LA CUERDA
NO CRE0 QUE ME AYA SALIDO MUY MAL JAJA.
SE LO DEDICO AMI  CHIKITA(MECHITA) ELLA QUE SIEMPRE ESTA
CONMIGO Y LA QuE ME DA ANIMOS.
SALDOS  PARA MIS PATAS DE LA UNION  OMAR,ALAN, MANUEL Y PARA
TODOS LOS QUE ME CONOCEN.
Esta cancion fue pedida por muchos asi es que se
las envio espero que les guste.
les aconcejo que primero lo escuchen ok.
 BUENO AHI LES VA.
INTRO:
1)--------6h8--6h8--6h8----------------------
2)-----------------------987-----------------
3)-----------------------------8h9-----------
4)-------------------------------------------
5)-------------------------------------------
6)-------------------------------------------

1)-------------------------------------------
2)-------98h9-87-------7h9--7h9---7h9-99-----
3)----------------89-------------------------
4)-------------------------------------------
5)-------------------------------------------
6)-------------------------------------------

Y si supieras cuanto espere a la pregunta si volveras
SIm                      LA                       RE
Y si supieras cuanto espere a la pregunta sime querras
SIm                      LA                        RE
Yo que pensaba que iba sufrir como pasaba con los demas
SIm                       LA                         RE
Yo preparado para sufrir lo que me quedaba por  vivir
SIm                  LA                        RE
No imaginaba que ivas a volver es como luz que nace del sol
SIm                     LA                                RE
Esque yo quiero vovler a vivir y esque yo dejo recompensar
SIm                           LA                       RE
Y mi alegria no tiene fin y mi sonrrisa eterna estará
SIm                            LA                RE
las mal en tus ojos ahi etaran
SIm                  LA    RE
Todo porti todo porti todo port…todo porti
SIm                       LA         RE

1)--------6h8--6h8--6h8----------------------
2)-----------------------987-----------------
3)-----------------------------8h9-----------
4)-------------------------------------------
5)-------------------------------------------
6)-------------------------------------------

1)-------------------------------------------
2)-------98h9-87-------7h9--7h9---7h9-99-----
3)----------------89-------------------------
4)-------------------------------------------
5)-------------------------------------------
6)-------------------------------------------

1)-----6h88h6-6s8--8h66h8-6s8----------------
2)-----------------------------7h8-----------
3)-------------------------------------------
4)-------------------------------------------
5)-------------------------------------------
6)-------------------------------------------

Y si supieras cuanto espere a la pregunta si volveras
SIm                      LA                       RE
Y si supieras cuanto espere a la pregunta sime querras
SIm                      LA                        RE
Yo que pensaba que iba sufrir como pasaba con los demas
SIm                       LA                         RE
Yo preparado para sufrir lo que me quedaba por  vivir
SIm                  LA                        RE
No imaginaba que ivas a volver es como luz que nace del sol
SIm                     LA                                RE
Esque yo quiero vovler a vivir y esque yo dejo recompensar
SIm                           LA                       RE
Y mi alegria no tiene fin y mi sonrrisa eterna estará
SIm                            LA                RE
las mal en tus ojos ahi etaran
SIm                  LA      RE
Todo porti todo porti todo port…todo porti
SIm                       LA         RE


(la verdad no estoy seguro de los acordes )
Para más información escribanme a mi correo
[email protected]





Calificar esta versión:
Aviso: Este fichero es trabajo propio de su transcriptor y representa su interpretación personal de la canción. El material contenido en esta página es para exclusivo uso privado, por lo que se prohibe su reproducción o retransmisión, así como su uso para fines comerciales.