Strange Deja Vú, Dream Theater (tablatura)

Autor: villalba | 18347 visualizaciones

INTRO:
E|--------------------------|------------------------|
B|--------------------------|------------------------|
G|-8-8-8-8--8-8-8-8--7-7-7--|-7-7-7-7----------------|
D|-6-6-6-6--6-6-6-6--6-6-6--|-6-6-6-6-----6----7-----|
A|--------------------------|--------------5----6----|
E|-4-4-4-4--4-4-4-4--4-4-4--|-4-4-4-4--0-4--4-5--5---|

E|--------------------------|----------|--------------------------|
B|--------------------------|----------|--------------------------|
G|-8-8-8-8--8-8-8-8--7-7-7--|-7-7-7-7--|-8-8-8-8--8-8-8-8--7-7-7--|
D|-6-6-6-6--6-6-6-6--6-6-6--|-6-6-6-6--|-6-6-6-6--6-6-6-6--6-6-6--|
A|--------------------------|----------|--------------------------|
E|-4-4-4-4--4-4-4-4--4-4-4--|-4-4-4-4--|-4-4-4-4--4-4-4-4--4-4-4--|

E|-----------------------|--------------------------|----------|
B|-----------------------|--------------------------|----------|
G|-7-7-7-7---------------|-5-5-5-5--5-5-5-5--5-5-5--|-5-5-5-5--|
D|-6-6-6-6-----6----7----|-3-3-3-3--3-3-3-3--3-3-3--|-3-3-3-3--|
A|--------------5----6---|--------------------------|----------|
E|-4-4-4-4--0-4--4-5--5--|-1-1-1-1--1-1-1-1--1-1-1--|-1-1-1-1--|

E|--------------------------|-----------------------|
B|--------------------------|-----------------------|
G|-5-5-5-5--5-5-5-5--5-5-5--|-5-5-5-5---------------|
D|-3-3-3-3--3-3-3-3--3-3-3--|-3-3-3-3-----3----4----|
A|--------------------------|--------------2----3---|
E|-1-1-1-1--1-1-1-1--1-1-1--|-1-1-1-1--0-1--1-2--2--|

E|--------------------------|-----------------------|----------------------|
B|--------------------------|-----------------------|----------------------|
G|--------------------------|-----------------------|----------------------|
D|--------------------------|-----------------------|----------------------|
A|--------------------------|-----------------------|----------------------|
E|--------------------------|-----------------------|-4-1-2-5--5-4--4-2-4--|

E|----------------------|----------------------|
B|----------------------|----------------------|
G|----------------------|----------------------|
D|-6----4---------------|----------------------|
A|-------------6-7-6-4--|----------------------|
E|--4--4--4--4----------|-4-1-2-5--5-4--4-2-4--|

E|----------------------|----------------------|--------------------|
B|----------------------|----------------------|--------------------|
G|----------------------|----------------------|--------------------|
D|-6----4---------------|----------------------|-4----2-----1-2-1---|
A|-------------4-6-4-3--|----------------------|-----------------4--|
E|--4--4--4--4----------|-1-2-4-5--4-2--2-0-2--|--2--2--2--2--------|

E|---------------------|--------------|
B|---------------------|--------------|
G|---------------------|--------------|
D|---------------------|-4----2-------|
A|-2-------------------|--------------|
E|--5-4-5--4-2--2-0-2--|--2--2--2--2--|

E|--------------------|----------------|-------|
B|--------------------|----------------|-------|
G|---------------6-6--|-8------8-------|-7--5--|
D|-6-7-6-4-------6-6--|-6--6-6-6--6-6--|-6--6--|
A|--------6-7-6--4-4--|----------------|-------|
E|-------------7------|----------------|-------|

E|----------------|-------|----------------|
B|----------------|-------|----------------|
G|-8------10------|-7--8--|-5------5-------|
D|-6--6-6-6--6-6--|-6--6--|-3--3-3-3--3-3--|
A|----------------|-------|----------------|
E|----------------|-------|----------------|

E|-------|----------------|-------|
B|-------|----------------|-------|
G|-4--2--|-5------7-------|-4--5--|
D|-3--3--|-3--3-3-3--3-3--|-3--3--|
A|-------|----------------|-------|
E|-------|----------------|-------|

E|----------------|------------|----------------|
B|----------------|------------|----------------|
G|-8------8-------|-7--5--5-7--|-8------10------|
D|-6--6-6-6--6-6--|-6--6--6----|-6--6-6-6--6-6--|
A|----------------|------------|----------------|
E|----------------|------------|----------------|

E|-------|----------------|------------|
B|-------|----------------|------------|
G|-7--8--|-5------5-------|-4--2--2-4--|
D|-6--6--|-3--3-3-3--3-3--|-3--3--3----|
A|-------|----------------|------------|
E|-------|----------------|------------|

E|----------------|-------|--------------------|
B|----------------|-------|--------------------|
G|-5------7-------|-4--5--|-7--7-7--6--4-------|
D|-3--3-3-3--3-3--|-3--3--|-4--4-4--4--4--4-4--|
A|----------------|-------|--------------------|
E|----------------|-------|--------------------|

E|--------------------|--------------------|---------------------|----------------|
B|-7--7-7--6--4-------|-9--9-9--7--6-------|-9--9-9--7--6--(6)\--|----------------|
G|-4--4-4--4--4--4-4--|-6--6-6--6--6--6-6--|-6--6-6--6--6--(6)\--|----------------|
D|--------------------|--------------------|---------------------|----------------|
A|--------------------|--------------------|---------------------|----------------|
E|--------------------|--------------------|---------------------|----------------|

E|------------------|----------------|--------------|
B|------------------|----5-----------|----2---------|
G|------------------|----6-----------|----2---------|
D|-6-7-6-4----------|----6-----------|----2---------|
A|---------6-7-6----|----4-----------|----0---------|
E|---------------7--|----------------|--------------|

E|-----------|----------------|--------------|
B|----5------|----------------|--5------5----|
G|----4------|----------------|--6------6----|
D|----2------|----------------|--6------6----|
A|-----------|----------/6----|--4--4-4-4----|
E|----4------|-2--4--5--------|--------------|

E|----5-------|----4----------|-----2--------|
B|-------5----|-------4-------|--------2-----|
G|-2----------|-4-------4-----|-2--------2---|
D|-2----------|-6---------6---|-4---------4--|
A|-0----------|-6-------------|-4------------|
E|------------|-4-------------|-2------------|

E|-------0---------|----------------|-----------------|
B|--4-------4------|------0------0--|-------0---0-----|
G|--4---------4----|-2---2----2-----|-----4-------4---|
D|--4--4--------4--|-2--2------2----|-4--4---------4--|
A|--2--------------|-0--------------|-2---------------|
E|-----------------|----------------|-----------------|

E|------------------|------------------|-----------------|
B|--------0---------|--------0----0----|--------0-----0--|
G|-2----2-----------|-----------3------|-2----2---2------|
D|-2--2----------4--|------4--------4--|-2--2-------2----|
A|-0-----------2----|----4-------------|-0---------------|
E|-----------0------|-2----------------|-----------------|

E|-------------------|--------3----|--------3--2--|
B|--------0---0------|----------3--|-3----3----3--|
G|------4-------4----|-5----5------|-2--2---------|
D|-4--4-----------4--|-5--5--------|-0------------|
A|-2-----------------|-3-----------|--------------|
E|-------------------|-------------|--------------|

E|--------|--------|--------|---------------|--------------------|
B|--------|--------|--5-----|---------------|--------------------|
G|--------|--------|--4-----|----5-5-5------|--------------------|
D|--2-----|--------|--2-----|---------------|--------------------|
A|--2-----|--------|--2-----|---------------|-5-7---5h7---X-5-7--|
E|--0-----|--------|--0-----|-0\--------0---|-----0-----0--------|

E|--------------|--------------------|------------------|
B|--------------|--------------------|------------------|
G|--------------|--------------------|------------------|
D|--------------|--------------------|------------------|
A|-5-7----------|-5-7---5h7---X-5-7--|-5-7--------------|
E|-----0-3-5-0--|-----0-----0--------|-----0-3--(3)--0--|

E|-------------------|-----------------------|-------------------|
B|-------------------|-----------------------|-------------------|
G|-------------------|-----------------------|-------------------|
D|-------------------|-----------------------|-------------------|
A|-5-7--5h7---X-5-7--|-5-7----------5-6-7----|-5-7---5h7--X-5-7--|
E|----0-----0--------|-----0--5-6-7-------0--|-----0----0--------|

E|----------------|----------|--------------------|
B|----------------|----------|--------------------|
G|----------------|-5-5-5----|--------------------|
D|----------------|----------|--------------------|
A|-5-7------------|----------|-5-7---5h7---X-5-7--|
E|-----0-3-4-5-0--|-------0--|-----0-----0--------|

E|-----------------|--------------------|-----------------|
B|-----------------|--------------------|-----------------|
G|-----------------|--------------------|-----------------|
D|-----------------|--------------------|-----------------|
A|-5-7----5--7-----|-5-7---5h7---X-5-7--|--5-7---5--7-----|
E|-----0--3--5--0--|-----0-----0--------|------0-3--5--0--|

E|--------------------|----------------|--------------------|
B|--------------------|----------------|--------------------|
G|--------------------|----------------|--------------------|
D|--------------------|----------------|--------------------|
A|-5-7---5h7---X-5-7--|-5-7---5--7-----|-5-7---5h7---X-5-7--|
E|-----0-----0--------|-----0-3--5--0--|-----0-----0--------|

E|------------------|--------------------|------------------|
B|------------------|--------------------|------------------|
G|-------------12\--|--------------------|-------------12\--|
D|-------------12\--|--------------------|-------------12\--|
A|-5-7---5--7-------|-5-7---5h7---X-5-7--|-5-7---5--7-------|
E|-----0-3--5-------|-----0-----0--------|-----0-3--5-------|

E|--------------------|------------------|---------------------|
B|--------------------|------------------|---------------------|
G|--------------------|-------------12\--|---------------------|
D|--------------------|-------------12\--|-4-5---4h5----X-4-5--|
A|-5-7---5h7---X-5-7--|-5-7---5--7-------|---------------------|
E|-----0-----0--------|-----0-3--5-------|-----0-----0---------|
                                          2DA GUITARRA
E|--------------------|------------------|---------------------|
B|--------------------|------------------|---------------------|
G|--------------------|------------------|---------------------|
D|--------------------|------------------|---------------------|
A|--------------------|------------------|-5-7---5h7----X-5-7--|
E|--------------------|------------------|-----0-----0---------|

E|------------------|---------------------|----------------|
B|------------------|---------------------|----------------|
G|-------------12\--|---------------------|----------------|
D|-4-5---------12\--|-4-5---4h5----X-5-7--|-4-5------------|
A|-------5--7-------|---------------------|-------------4--|
E|-----0-3--5-------|-----0-----0---------|-----0-3-4-5----|

E|------------------|--------------------|----------------|
B|------------------|--------------------|----------------|
G|-------------12\--|--------------------|----------------|
D|-------------12\--|--------------------|----------------|
A|-5-7---5--7-------|-5-7---5h7---X-5-7--|-5-7---------4--|
E|-----0-3--5-------|-----0-----0--------|-----0-3-4-5----|

E|-------------------|--------------------|----------------|
B|-------------------|--------------------|----------------|
G|-------------------|--------------------|----------------|
D|--------------2----|--------------------|-----------2----|
A|------------2---4--|-----------------4--|---------2---4--|
E|--0-2---3-4--------|--0-2-3-4--3p2-0----|-0-2-3-4--------|

E|------------------|----------------|-------------------|
B|------------------|----------------|-------------------|
G|------------------|----------------|-------------------|
D|-------2----------|-----------2----|-------------------|
A|---------4p2---4--|---------2---4--|----------------4--|
E|-0-2-4-------4----|-0-2-3-4--------|-0-2-3-4--3p2-0----|

E|----------------|-----------------|-------------------|
B|----------------|-----------------|-------------------|
G|----------------|-----------------|-------------------|
D|-----------2----|-------/4--------|---4-6----4h6------|
A|---------2---4--|----------6p4----|-------------------|
E|-0-2-3-4--------|-0-2-4--------7--|-4-----4------4-7--|

E|----------------|------------------|------------------------|
B|----------------|------------------|------------------------|
G|----------------|------------------|------------------------|
D|----------------|---4-6---4h6------|------------------------|
A|-4-/6-4---------|------------------|-4-/6-4--4h-5p4---------|
E|--------7--2h3--|-4-----4-----4-7--|----------------7--2-3--|

E|------------------|---------------|------------------|
B|------------------|---------------|------------------|
G|------------------|---------------|------------------|
D|---4-6---4h6------|---------------|---4-6---4h6------|
A|------------------|-4-6-4---------|------------------|
E|-4-----4-----4-7--|-------7--2h3--|-4-----4-----4-7--|

E|----------------|-4------------|--------------|---------------|-----2-------|
B|----------------|-5------------|-2------------|-5-------------|--------2----|
G|----------------|-6------------|-2------------|-4-------------|-2--------2--|
D|----------------|-6------------|-2------------|-2-------------|-4-----------|
A|-4/6---------2--|-4------------|-0------------|---------------|-4-----------|
E|-----2---3-4----|--------------|--------------|-4-------------|-2-----------|

E|----------------|--------------|--------------|---------------|-------------|
B|----------------|--------------|--------------|---------------|-------------|
G|----------------|--------------|--------------|---------------|-------------|
D|----------------|--------------|--------------|---------------|-------------|
A|----------------|-4------------|--------------|---------------|-------------|
E|----------------|--------------|-5------------|-4-------------|-------------|

E|----------------|-------------|---------------|
B|---------3------|-------------|---------------|
G|-----2-----2----|-------------|---------------|
D|-----0----------|-7------7----|---------------|
A|-----0----------|-4--4-4------|-2----4-5------|
E|----------------|-------------|------------4--|

E|------2-------|-----------|-----------|
B|---------2----|------3----|-----------|
G|--2--------2--|-2------2--|-6------6--|
D|--4-----------|-0---------|-----------|
A|--4-----------|-0---------|-4---------|
E|--2-----------|-----------|-----------|

E|---------------|-------0-------|----------------|
B|--------0------|----------0----|----------------|
G|-4----4---4----|----1----------|----------------|
D|-4--4-------4--|---------------|----------------|
A|-2-------------|---------------|----------------|
E|---------------|-0-------------|----------------|

 B5                    Asus2                    F#(11)
 Asus2                 B5                       Csus4         D        Dsus             D
 Asus2                 B5                       Asus2
 F#(11)                Asus2                    B5
 
E|----3----|---------|------3---2-----|-------------|-3--------|
B|------3--|---------|-3--3-----------|---------3---|-3--------|
G|-5-------|---------|-2--------------|-------------|-0--------|
D|-5-------|-5-4--2--|-0--------------|-------------|-0--------|
A|-3-------|---------|----------------|-------------|----------|
E|---------|---------|-------------0--|-2---2-------|-3--------|

E|----3-----|--------------|------3-----2----|----5-----|-3----|
B|------3---|--------------|-3--3------------|-------3--|-3----|
G|-5--------|-/4--2-----0--|-2---------------|----------|-0----|
D|-5--------|--------------|-0---------------|----------|-0----|
A|-3--------|--------------|-----------------|----------|------|
E|----------|--------------|--------------0--|-2--------|-3----|
                                 
                                                        FIN.

Comentarios del colaborador: este es un buen tema, espero que le sirva, es muy facil, suerte con el tema.

Calificar esta versión:
Aviso: Este fichero es trabajo propio de su transcriptor y representa su interpretación personal de la canción. El material contenido en esta página es para exclusivo uso privado, por lo que se prohibe su reproducción o retransmisión, así como su uso para fines comerciales.