Erotomania Instrumental, Dream Theater (tablatura)

Autor: fedex | 41650 visualizaciones

con sonido de teclado

--7-------3-----6-----5------
--7-------3-----4-----5------se repite 2 veces 
--9-------5-----6-----7------
-----------------------------
-----------------------------
-----------------------------

0:08


-------------------- -------------------------------
-------------------- -------------------------------
-------------------- -------------------------------
-------------------- -------------------------------
-----------2-5-4---- -------------4-7-6-------------
--2-3-4-5--------3-- --0-4-5-6-7---------5-0--------4 veces


1:13


----------------------------------
----------------------------------
----------------------------------
----------------------------------
----------------------------------
-3-2-1-0-3-2-1-0-3-2-1-0-3-2-1-0--

Calificar esta versión:
Aviso: Este fichero es trabajo propio de su transcriptor y representa su interpretación personal de la canción. El material contenido en esta página es para exclusivo uso privado, por lo que se prohibe su reproducción o retransmisión, así como su uso para fines comerciales.