Erotomania, Dream Theater (tablatura)

Autor: fedex | 27420 visualizaciones

con sonido del teclado:intro


-7--3--6--5--
-7--3--4--5--
-9--5--6--7--se repite dos veces luego:
-------------
-------------
-------------


seccion 1

-----------------------------------------------
-----------------------------------------------
-----------------------------------------------
-----------------------------------------------se repite 4 veces
-----------2-5-4-------------------4-7-6-------
-2-3-4-5----------3----0-2-3-4-5-----------5-0-

0:22



E ---------------------------------------
B ---------------------------------------
G ---------------------------------------
D ----------9-8~---6---------7-6---5-----
A ---7---7-------7------4-5----------3---
E (0)0-0-0------------0----------3-----1-

E ---------------------------------------------------
B ---------------------------------------------------
G ---------------------------------------------------
D ----------9-8~---6----3-5-7------1-3-5-------------
A ---7---7-------7------------5~--------3~---4-3-2-
E (0)0-0-0------------0------------------------------
 
E ---------------------------------------
B ---------------------------------------
G ---------------------------------------
D ----------9-8~---6---------7-5---5-----
A ---7---7-------7------4-5----------3---
E (0)0-0-0------------0----------3-----1-

					  *
E ---------------------------------------------------
B ---------------------------------------------------
G ---------------------------------------------------
D ----------9-8~---6----3-5-7------1-3-5-------------
A ---7---7-------7------------5~--------3~---4-3-2-
E (0)0-0-0------------0------------------------------



luego se toca toda la primera seccion de nuevo



1:13


----------------------------------------
----------------------------------------
----------------------------------------
----------------------------------------
----------------------------------------
-3-2-1-0-3-2-1-0-3-2-1-0-3-2-1-0--------



-----------------------------------------------------------
-----------------------------------------------------------
-----------------------------------------------------------
--5--4--3-2---5--7---9-9-7---5--4--3-2--5--7--9-9--7-------
-----------------------------------------------------------
-----------------------------------------------------------


hasta ahi lo se luego agregare mas partes

Comentarios del colaborador: version incompleta

Calificar esta versión:
Aviso: Este fichero es trabajo propio de su transcriptor y representa su interpretación personal de la canción. El material contenido en esta página es para exclusivo uso privado, por lo que se prohibe su reproducción o retransmisión, así como su uso para fines comerciales.