Endless Sacrifice, Dream Theater (tablatura)

Autor: fedex | 40256 visualizaciones

------------------------- ---------------------------- 
------------------------- ---------------------------- 
-------------0----------- --------0------------------- 
-------2-4-------4-2----- ----2------2-----2------4--- 
----2------------------2- -3------------4------2------ 
-0----------------------- ---------------------------- 


---------------------------------------- -------------
---------------------------------------- -------------
--------------0-------------------0----- -------------
--------2-4-------4-2---------2-------2- ----0--------
----2-------------------2--3------------ -------3-2---
-0-------------------------------------- --2----------



esta es la introduccion, se repite todo el tiempo hasta el estribillo
Calificar esta versión:
Aviso: Este fichero es trabajo propio de su transcriptor y representa su interpretación personal de la canción. El material contenido en esta página es para exclusivo uso privado, por lo que se prohibe su reproducción o retransmisión, así como su uso para fines comerciales.