As I Am, Dream Theater (tablatura)

Autor: forkus | 35973 visualizaciones

------------------------------
----------------------------
----------------------------
------------------------------se repite 3
----7---7-------7---7--------
--0---0--(6)--0---0--(6)---

-----------------------------
----------------------------
------------------------------
--------------------------------
-2-2--7--7-------7-7-7-------------------se repite lo nesesario
-0-0---0---6-6-6-5-5-5-------------------

-----------------
------------------
----------------
-------------------
--2-2--8-7-5-7-7h8p7----8-7-5-5-7---
--0-0----------------00------------

---------
-------------
-----------------
-------------------
-8-75-7-7h8p7-----5--0-4-0----------------------------
--------------00--3--0-2-0-----------------------
esta incompleto pero esto les servira de algo la clave esta en segir la velocida en los 8 7 5..... 
siempre no dejes de tocar la 6 cueda sl aire soy nuevo en esto ojala les sirva
Calificar esta versión:
Aviso: Este fichero es trabajo propio de su transcriptor y representa su interpretación personal de la canción. El material contenido en esta página es para exclusivo uso privado, por lo que se prohibe su reproducción o retransmisión, así como su uso para fines comerciales.