Valley Of The Damned, Dragonforce (tablatura)

Autor: aqui_estoy | 43528 visualizaciones

|Valley of the Damned - DragonForce|

Tabbed By Thom Hayden
Email: tom_hayden@hotmail.com

Tuning: Standard (EBGDAe)


Intro

Guitar 1:
e------------------------------------------------------|
B------------------------------------------------------|
G------------------------------------------------------|
D----4h5----4h5----4h5----4h5---4h5--4h5----4h5-----4h5|
A------------------------------------------------------|
E-00----00------00-----00----33----33----33-----33-----|
 |PM|  |PM|    |PM|   |PM|  |PM|  |PM|  |PM|   |PM|   

e-----------------------------------------------|
B-----------------------------------------------|
G-----------------------------------------------|
D---2h4--2h4--2h4--2h4-----2---4h5-5-4-4-4-5-4--|
A-00---00---00---00----3-3---3----3-2-2---------|
E-----------------------------------------------|
 |PM| |PM| |PM| |PM|




Guitar 2:
e------------------------------------------------------------------|
B-/8-7-5---------/12-10-8-------/10-8-7-----/5-7-8---8-10-7-8-7----|
G------------------------------------------------------------9-9~--|
D-/5-4-2---------/9--7--5-------/7--5-4-----/2-4-5-----------------|
A------------------------------------------------------------------|
E------------------------------------------------------------------|

GUITARS 1 + 2

e-----------------|
B-----------------|
G-----------------|
D-----------------|
A-2-2-2-2---------|
E---------5-5-3-3-|
 |------PM-------|

VERSE PART 1

GUITAR 1 AND 2

e------------------------------------------------------------------|
B------------------------------------------------------------------|
G------------------------------------------------------------------|
D-777777777777777777777777777777755555555555555553~~~~~~~~~~5~~~~~~|
A-999999999999999999999999999999977777777777777775~~~~~~~~~~7~~~~~~|
E------------------------------------------------------------------|
 |---------------------PM-----------------------|



e------------------------------------------------------------------|
B------------------------------------------------------------------|
G------------------------------------------------------------------|
D-77777777777777777777777777777775555555555555555333333333335555555|
A-99999999999999999999999999999997777777777777777555555555557777777|
E------------------------------------------------------------------|


VERSE PART 2

GUITAR 1 + 2

e--------------------------|
B--------------------------|
G-----5---9-9-9------5-4---|
D-7---5---9-9-9--7---5-4---|
A-7---3---7-7-7--7---3-2---|
E-5--------------5---------|

VERSE PART 3

GUITARS 1 + 2

e---------------------------------------------------------------------|
B---------------------------------------------------------------------|
G---------------------------------------------------------------------|
D-99999999999999999999-----------------7777777777777777999999999999999|
A-77777777777777777777555555555555555555555555555555555777777777777777|
E---------------------33333333333333333-------------------------------|


e---------------------------------------------------------------------|
B---------------------------------------------------------------------|
G---------------------------------------------------------------------|
D-99999999999999999999----------------55555555555555555577777777777777|
A-77777777777777777777555555555555555533333333333333333355555555555555|
E---------------------3333333333333333--------------------------------|


VERSE PART 4

GUITAR 1 + 2

e----------------------------------------|
B----------------------------------------|
G------7777-9999------5555------5555-7777|
D-5555-7777-9999-9999-5555-5555-5555-7777|
A-5555-5555-7777-9999-3333-5555-3333-5555|
E-3333-----------7777------3333----------|



SOLO

GUITAR 1

PART 1
e-20-19P15------15H19-20-19P15------15H19-20-19P15------15H19-22-19P15H19|
B---------17--17--------------17--17--------------17--17-----------------|
G-----------16------------------16------------------16-------------------|
D------------------------------------------------------------------------|
A------------------------------------------------------------------------|
E------------------------------------------------------------------------|



e-22-15H19-20-19P15------15H19-22-19P15H19-22|
B------------------17--17--------------------|
G--------------------16----------------------|
D--------------------------------------------|
A--------------------------------------------|
E--------------------------------------------|




e-20-19P15------15H19-20-19P15------15H19-20-19P15------15H19-22-19P15H19|
B---------17--17--------------17--17--------------17--17-----------------|
G-----------16------------------16------------------16-------------------|
D------------------------------------------------------------------------|
A------------------------------------------------------------------------|
E------------------------------------------------------------------------|



e-22-15H19-20-19P15------15H19-22-19P15H19-22|
B------------------17--17--------------------|
G--------------------16----------------------|
D--------------------------------------------|
A--------------------------------------------|
E--------------------------------------------|



e-20-19P15------15H19-20-19P15------15H19-20-19P15------15H19-22-19P15H19|
B---------17--17--------------17--17--------------17--17-----------------|
G-----------16------------------16------------------16-------------------|
D------------------------------------------------------------------------|
A------------------------------------------------------------------------|
E------------------------------------------------------------------------|



e-22-15H19-20-19P15------15H19-22-19P15H19-22|
B------------------17--17--------------------|
G--------------------16----------------------|
D--------------------------------------------|
A--------------------------------------------|
E--------------------------------------------|



e-20-19P15------15H19-20-19P15------15H19-20-19P15------15H19-22-19P15H19|
B---------17--17--------------17--17--------------17--17-----------------|
G-----------16------------------16------------------16-------------------|
D------------------------------------------------------------------------|
A------------------------------------------------------------------------|
E------------------------------------------------------------------------|



e-22-15H19-20-19P15------15H19-22-19P15H19-22|
B------------------17--17--------------------|
G--------------------16----------------------|
D--------------------------------------------|
A--------------------------------------------|
E--------------------------------------------|



e-20-19-15-----------------------------------------15H19|
B---------17-20-17-------------------------------17-----|
G-----------------16-21-16---------------------16-------|
D-------------------------17-21-17-----------17---------|
A---------------------------------19-22-19-19-----------|
E-------------------------------------------------------|


IM STILL WORKING OUT THE REST OF THE SOLO, I WILL UPDATE SOON THOUGH.

LYRICS:
On a cold dark winter night, hidden by the stormy light
A battle rages for the right, for what will become
In the valley of the damned, a warrior with sword in hand
Travels fast across the land, for freedom he rides

And the sign from the master on high

He screams aloud and across hear the cry
For the kingdom of fire and ice
And the power to be alive

Be strong ride on, carry on through the war
Come along carry on, living for ever more

On the wings of death, by the hands of doom
By the darkest light, from the darkest moon
Crossing silent seas, over mountains high
For we stand as one tonight

On the black wind forever we ride on together
Destroying your evil with freedom our guide
When the master will call us
He####ll stand high before us
Our hearts filled with splendour
Our swords will shine over the light

In the valley of the damned
Day breaks with golden strand
Over pastures green it glows
To where night returns

In the shadows faces appear
Warriors wearing full metal gear
Join together one and all before the glorious light
Rise up, gather round, come and hear what is said
Use your senses open your mind don####t you ever forget

On the wings of life, by the hands of hope
By the brightest light from the brightest sun
Crossing silent seas over mountains high
To the valley of the damned!

On the black wind forever we ride on together...


On the black wind forever we ride on together...

On the black wind forever we ride on together...

Comentarios del colaborador: Tabsdeluxe.com

Calificar esta versión:
Aviso: Este fichero es trabajo propio de su transcriptor y representa su interpretación personal de la canción. El material contenido en esta página es para exclusivo uso privado, por lo que se prohibe su reproducción o retransmisión, así como su uso para fines comerciales.