Trought The Fire And Flames, Dragonforce (tablatura)

Autor: kill-Ac | 32621 visualizaciones

solo de inicio

1-----------------9------------------
2----11-12---11-12--16-14-12-11------
3--13------13---------15--14-12-10--- x8
4------------------------------------ 
5------------------------------------
6------------------------------------


1-------------------------------------
2--16----11---11----16----11--11---16-
3-----15---12----15----15---12---15---
4-------------------------------------
5-------------------------------------
6-------------------------------------

Comentarios del colaborador: espero que les guste,fue a puro oido y me costo pero lo logre.. para que esten atentos cada semana voy a tratar de subir cada parte de la cancion !!!

Calificar esta versión:
Aviso: Este fichero es trabajo propio de su transcriptor y representa su interpretación personal de la canción. El material contenido en esta página es para exclusivo uso privado, por lo que se prohibe su reproducción o retransmisión, así como su uso para fines comerciales.