Trough Fire And Flames, Dragonforce (tablatura)

Autor: victorgnr | 39080 visualizaciones

Through The Fire And Flames                                     


                                                                                         DragonForce
Herman Li (Lead Guitar)



     S S S S S S S S S S S S S S S S    S S S S S S S S S S S S S S S S  
E||----------------------------------|--6-------------------------------|
B||--------------------------6-------|------8---9---6---8-------6-------|
G||--5---7---8---5---7---8-------7---|----------------------8-------7---|
D||----5---5---5---5---5---5---5---5-|----5---5---5---5---5---5---5---5-|
A||----------------------------------|----------------------------------|
E||----------------------------------|----------------------------------|


  S S S S S S S S S S S S S S S S    S S S S S S S S S S S S S S S S  
----------------------------------|--6-------------------------------|
--------------------------6-------|------8---9---6---8-------6-------|
--5---7---8---5---7---8-------7---|----------------------8-------7---|
----5---5---5---5---5---5---5---5-|----5---5---5---5---5---5---5---5-|
----------------------------------|----------------------------------|
----------------------------------|----------------------------------|


  S S S S S S S S S S S S S S S S    S S S S S S S S S S S S S S S S  
----------------------------------|--6-------------------------------|
--------------------------6-------|------8---9---6---8-------6-------|
--5---7---8---5---7---8-------7---|----------------------8-------7---|
----5---5---5---5---5---5---5---5-|----5---5---5---5---5---5---5---5-|
----------------------------------|----------------------------------|
----------------------------------|----------------------------------|


  S S S S S S S S S S S S S S S S    S S S S S S S S S S S S S S S S  
----------------------------------|--6-------------------------------|
--------------------------6-------|------8---9---6---8-------6-------|
--5---7---8---5---7---8-------7---|----------------------8-------7---|
----5---5---5---5---5---5---5---5-|----5---5---5---5---5---5---5---5-|
----------------------------------|----------------------------------|
----------------------------------|----------------------------------|


  S S S S S S S S S S S S S S S S    S S S S S S S S S S S S S S S S  
----------------------------------|--6-------------------------------|
--------------------------6-------|------8---9---6---8-------6-------|
--5---7---8---5---7---8-------7---|----------------------8-------7---|
----5---5---5---5---5---5---5---5-|----5---5---5---5---5---5---5---5-|
----------------------------------|----------------------------------|
----------------------------------|----------------------------------|


  S S S S S S S S S S S S S S S S    S S S S S S S S S S S S S S S S  
----------------------------------|--6-------------------------------|
--------------------------6-------|------8---9---6---8-------6-------|
--5---7---8---5---7---8-------7---|----------------------8-------7---|
----5---5---5---5---5---5---5---5-|----5---5---5---5---5---5---5---5-|
----------------------------------|----------------------------------|
----------------------------------|----------------------------------|


  S S S S S S S S S S S S S S S S    S S S S S S S S S S S S S S S S  
----------------------------------|--6-------------------------------|
--------------------------6-------|------8---9---6---8-------6-------|
--5---7---8---5---7---8-------7---|----------------------8-------7---|
----5---5---5---5---5---5---5---5-|----5---5---5---5---5---5---5---5-|
----------------------------------|----------------------------------|
----------------------------------|----------------------------------|


  S S S S S S S S S S S S S S S S    S S S S S S  S S S  S  S S S S S S  
----------------------------------|--6----------------6h-8p-6-----------|
--------------------------6-------|----8------------8---------8-------8-|
--5---7---8---5---7---8-------7---|------8-5---5h-8-------------8-5-8---|
----5---5---5---5---5---5---5---5-|----------5--------------------------|
----------------------------------|-------------------------------------|
----------------------------------|-------------------------------------|


   S  S  S  S S S  S  S  S  S S S  S  S S S     S  S  S  S S S  S  S  S  S S S  S  S S S  
--11-11-11-11-8-8-11-11-11-11-8-8-11-11-8-8-|--11-11-11-11-8-8-11-11-11-11-8-8-11-11-8-8-|
--------------------------------------------|--------------------------------------------|
--------------------------------------------|--------------------------------------------|
--------------------------------------------|--------------------------------------------|
--------------------------------------------|--------------------------------------------|
--------------------------------------------|--------------------------------------------|


   S  S  S  S  S  S  S  S  S  S  S  S  S  S  S  S  
--15-15-15-15-11-11-15-15-15-15-11-11-15-15-11-11-|
--------------------------------------------------|
--------------------------------------------------|
--------------------------------------------------|
--------------------------------------------------|
--------------------------------------------------|


   S  S  S  S  S  S  S  S  S  S  S  S  S  S  S  S     S  S  S  S S S  S  S  S  S S S  S  S S S  
--15-15-15-15-11-11-15-15-15-15-11-11-15-15-11-11-|--13-13-13-13-8-8-13-13-13-13-8-8-13-13-8-8-|
--------------------------------------------------|--------------------------------------------|
--------------------------------------------------|--------------------------------------------|
--------------------------------------------------|--------------------------------------------|
--------------------------------------------------|--------------------------------------------|
--------------------------------------------------|--------------------------------------------|


   S  S  S  S S S  S  S  S  S S S  S  S S S     S  S  S  S S S  S  S  S  S S S  S  S S S  
--13-13-13-13-8-8-13-13-13-13-8-8-13-13-8-8-|--11-11-11-11-8-8-11-11-11-11-8-8-11-11-8-8-|
--------------------------------------------|--------------------------------------------|
--------------------------------------------|--------------------------------------------|
--------------------------------------------|--------------------------------------------|
--------------------------------------------|--------------------------------------------|
--------------------------------------------|--------------------------------------------|


  S  S  S  S  S  S  S  S   E    E    Q         S  S  S  S S S  S  S  S  S S S  S  S S S  
--8-10-11-13-10-11-13-15-/11--/13--/15~----|--11-11-11-11-8-8-11-11-11-11-8-8-11-11-8-8-|
-------------------------------------------|--------------------------------------------|
-------------------------------------------|--------------------------------------------|
-------------------------------------------|--------------------------------------------|
-------------------------------------------|--------------------------------------------|
-------------------------------------------|--------------------------------------------|


   S  S  S  S S S  S  S  S  S S S  S  S S S     S  S  S  S  S  S  S  S  S  S  S  S  S  S  S  S  
--11-11-11-11-8-8-11-11-11-11-8-8-11-11-8-8-|--15-15-15-15-11-11-15-15-15-15-11-11-15-15-11-11-|
--------------------------------------------|--------------------------------------------------|
--------------------------------------------|--------------------------------------------------|
--------------------------------------------|--------------------------------------------------|
--------------------------------------------|--------------------------------------------------|
--------------------------------------------|--------------------------------------------------|


   S  S  S  S  S  S  S  S  S  S  S  S  S  S  S  S     S  S  S  S S S  S  S  S  S S S  S  S S S  
--15-15-15-15-11-11-15-15-15-15-11-11-15-15-11-11-|--13-13-13-13-8-8-13-13-13-13-8-8-13-13-8-8-|
--------------------------------------------------|--------------------------------------------|
--------------------------------------------------|--------------------------------------------|
--------------------------------------------------|--------------------------------------------|
--------------------------------------------------|--------------------------------------------|
--------------------------------------------------|--------------------------------------------|


   S  S  S  S S S  S  S  S  S S S  S  S S S     S  S S S S S  S S   S  S S S S S  S S  
--13-13-13-13-8-8-13-13-13-13-8-8-13-13-8-8-|--11p-8------------8--11p-8------------8-|
--------------------------------------------|--------9---8-9-11----------9---8-9-11---|
--------------------------------------------|----------8-------------------8----------|
--------------------------------------------|-----------------------------------------|
--------------------------------------------|-----------------------------------------|
--------------------------------------------|-----------------------------------------|


      /1                                                                             
      W                    W                   W                   W                 
--<>(16)----------------|-------------------|-------------------|-------------------|
------------------------|-------------------|-------------------|-------------------|
------------------------|-------------------|-------------------|-------------------|
------------------------|-------------------|-------------------|-------------------|
------------------------|-------------------|-------------------|-------------------|
------------------------|-------------------|-------------------|-------------------|


  W                   W                   W                   W                   W                 
-------------------|-------------------|-------------------|-------------------|-------------------|
-------------------|-------------------|-------------------|-------------------|-------------------|
-------------------|-------------------|-------------------|-------------------|-------------------|
-------------------|-------------------|-------------------|-------------------|-------------------|
-------------------|-------------------|-------------------|-------------------|-------------------|
-------------------|-------------------|-------------------|-------------------|-------------------|


  W                   W                   W                   W                   W                 
-------------------|-------------------|-------------------|-------------------|-------------------|
-------------------|-------------------|-------------------|-------------------|-------------------|
-------------------|-------------------|-------------------|-------------------|-------------------|
-------------------|-------------------|-------------------|-------------------|-------------------|
-------------------|-------------------|-------------------|-------------------|-------------------|
-------------------|-------------------|-------------------|-------------------|-------------------|


  W                   W                   W                   W                   W                 
-------------------|-------------------|-------------------|-------------------|-------------------|
-------------------|-------------------|-------------------|-------------------|-------------------|
-------------------|-------------------|-------------------|-------------------|-------------------|
-------------------|-------------------|-------------------|-------------------|-------------------|
-------------------|-------------------|-------------------|-------------------|-------------------|
-------------------|-------------------|-------------------|-------------------|-------------------|


  W                   W                   W                   W                   W                 
-------------------|-------------------|-------------------|-------------------|-------------------|
-------------------|-------------------|-------------------|-------------------|-------------------|
-------------------|-------------------|-------------------|-------------------|-------------------|
-------------------|-------------------|-------------------|-------------------|-------------------|
-------------------|-------------------|-------------------|-------------------|-------------------|
-------------------|-------------------|-------------------|-------------------|-------------------|


  W                   E  E  E  E  E  E  E  E     E  E  E  E  E  E  E  E   
-------------------|--------------------------|--------------------------|
-------------------|--9--------8--------6-----|--9--------8--------6-----|
-------------------|-----5--5-----5--5-----5--|-----5--5-----5--5-----5--|
-------------------|--------------------------|--------------------------|
-------------------|--------------------------|--------------------------|
-------------------|--------------------------|--------------------------|


   T    T    T    T    T    T    T    T       T    T    T    T    T    T    T    T    
   S S  S S  S S  S S  S S  S S  S S  S S     S S  S S  S S  S S  S S  S S  S S  S S  
--11-8-11-8-11-8-11-8-11-8-11-8-11-8-11-8-|--11-8-11-8-11-8-11-8-11-8-11-8-11-8-11-8-|
------------------------------------------|------------------------------------------|
------------------------------------------|------------------------------------------|
------------------------------------------|------------------------------------------|
------------------------------------------|------------------------------------------|
------------------------------------------|------------------------------------------|


  E  E  E  E  E  E  E  E     E  E  E  E  E  E  E  E      W                 
--------------------------|--------------------------|--------------------|
--9--------8--------6-----|--9--------8--------6-----|--11----------------|
-----8--8-----8--8-----8--|-----8--8-----8--8-----8--|--------------------|
--------------------------|--------------------------|--------------------|
--------------------------|--------------------------|--------------------|
--------------------------|--------------------------|--------------------|


  E    E    E    E    E    E    E    E     W                   W                 
--8S--10S--11S--13S--15S--16S--18S--23--|-------------------|-------------------|
----------------------------------------|-------------------|-------------------|
----------------------------------------|-------------------|-------------------|
----------------------------------------|-------------------|-------------------|
----------------------------------------|-------------------|-------------------|
----------------------------------------|-------------------|-------------------|


  W                   W                   W                   W                   W                 
-------------------|-------------------|-------------------|-------------------|-------------------|
-------------------|-------------------|-------------------|-------------------|-------------------|
-------------------|-------------------|-------------------|-------------------|-------------------|
-------------------|-------------------|-------------------|-------------------|-------------------|
-------------------|-------------------|-------------------|-------------------|-------------------|
-------------------|-------------------|-------------------|-------------------|-------------------|


  W                   W                   W                   E  E  E  E  E  E  E  E   
-------------------|-------------------|-------------------|--------------------------|
-------------------|-------------------|-------------------|--8--------6--------8-----|
-------------------|-------------------|-------------------|-----8--8-----8--8-----8--|
-------------------|-------------------|-------------------|--------------------------|
-------------------|-------------------|-------------------|--------------------------|
-------------------|-------------------|-------------------|--------------------------|


   W                   S S S S S S S S S S S S S S S S    S S S S S S S S S S S S S S S S  
--------------------|----------6-6-8-8---------6-6-8-8-|----------6-6-8-8---------6-6-8-8-|
--11----------------|--6-6-9-9---------6-6-9-9---------|--6-6-9-9---------6-6-9-9---------|
--------------------|----------------------------------|----------------------------------|
--------------------|----------------------------------|----------------------------------|
--------------------|----------------------------------|----------------------------------|
--------------------|----------------------------------|----------------------------------|


  W                      W                    W                   W                 
--6----------------|-----------------------|-------------------|-------------------|
-------------------|-----------------------|-------------------|-------------------|
-------------------|--<>10b----------------|-------------------|-------------------|
-------------------|-----------------------|-------------------|-------------------|
-------------------|-----------------------|-------------------|-------------------|
-------------------|-----------------------|-------------------|-------------------|


  W                   W                   W                   W                   W                 
-------------------|-------------------|-------------------|-------------------|-------------------|
-------------------|-------------------|-------------------|-------------------|-------------------|
-------------------|-------------------|-------------------|-------------------|-------------------|
-------------------|-------------------|-------------------|-------------------|-------------------|
-------------------|-------------------|-------------------|-------------------|-------------------|
-------------------|-------------------|-------------------|-------------------|-------------------|


  W                   W                   W                   W                   W                 
-------------------|-------------------|-------------------|-------------------|-------------------|
-------------------|-------------------|-------------------|-------------------|-------------------|
-------------------|-------------------|-------------------|-------------------|-------------------|
-------------------|-------------------|-------------------|-------------------|-------------------|
-------------------|-------------------|-------------------|-------------------|-------------------|
-------------------|-------------------|-------------------|-------------------|-------------------|


                                                                               PM PM         
  W                   W                   E  Q    E  E  E  E  E     E  Q    E  E  E    Q     
-------------------|-------------------|-------------------------|-------------------<>6----|
-------------------|-------------------|--8--8----6--8--6--------|--8--8-------6--8---------|
-------------------|-------------------|-------------------8--5--|----------8---------------|
-------------------|-------------------|-------------------------|--------------------------|
-------------------|-------------------|-------------------------|--------------------------|
-------------------|-------------------|-------------------------|--------------------------|


  E  Q    S S S S S S S S S S    E  E   E     H         E       E  E  E    Q    E  E   E   
----------------------6-6-----|--6--8--10--<>11~--------L--|--<>6------------------6--11--|
--8--8----6-6-8-8-9-9-----8-8-|----------------------------|-------8----------------------|
------------------------------|----------------------------|----------8--<>8----8---------|
------------------------------|----------------------------|------------------------------|
------------------------------|----------------------------|------------------------------|
------------------------------|----------------------------|------------------------------|


      E   E   E   E  E    E   S   S  E       E   E    E    E   E   E   E    E   
--/<>15--11--15--16-----/18--16p-15-----|--/23--23s--18S--23--23--18--23s--18--|
------------------------------------16--|--------------------------------------|
----------------------------------------|--------------------------------------|
----------------------------------------|--------------------------------------|
----------------------------------------|--------------------------------------|
----------------------------------------|--------------------------------------|


   T     T     T     T     T     T     T                                         
   S  S  S  S  S  S  S  S  S  S  S  S  S  S   E     E  Q    S S S S S S S S S S  
--18-16-18-16-18-16-18-16-18-15-20-16-18-15s-11--|------------------------------|
-------------------------------------------------|--8--8----6-6-8-8-6-6---------|
-------------------------------------------------|----------------------8-8-5-5-|
-------------------------------------------------|------------------------------|
-------------------------------------------------|------------------------------|
-------------------------------------------------|------------------------------|


                                T    T    T   T   T   T   T   T                                  
  E  Q    E   E   E    Q        S S  S S  S S S S S S S S S S S S     E  E   E     H         E   
----------------------------|--11-6-11-6-11-6-8-4-8-4-8-4-6-4-6-4-|--/6--8--10--<>11~--------L--|
--8--8----6--/8--/9--/11----|-------------------------------------|-----------------------------|
----------------------------|-------------------------------------|-----------------------------|
----------------------------|-------------------------------------|-----------------------------|
----------------------------|-------------------------------------|-----------------------------|
----------------------------|-------------------------------------|-----------------------------|


  E  Q    S S E  E  E  E     E  Q    S S E   E     Q     
--6--6--------6-----------|--6--6--------6--11--<>11----|
----------8-9----9--8-----|----------8-9----------------|
-----------------------8--|-----------------------------|
--------------------------|-----------------------------|
--------------------------|-----------------------------|
--------------------------|-----------------------------|


   T     T     T     T     T     T     T     T                                           
   S  S  S  S  S  S  S  S  S  S  S  S  S  S  S  S      E   S  S   Q      E.    E.    E   
--23-18-23-18-23-18-23-16-23-18-23-16-23-18-23-18-|--/16--16-16-/18----/16---/15---/10--|
--------------------------------------------------|-------------------------------------|
--------------------------------------------------|-------------------------------------|
--------------------------------------------------|-------------------------------------|
--------------------------------------------------|-------------------------------------|
--------------------------------------------------|-------------------------------------|


     Q.      H        E     W                   W                   W                 
--<>15~------------------|-------------------|-------------------|-------------------|
-------------------------|-------------------|-------------------|-------------------|
-------------------------|-------------------|-------------------|-------------------|
-------------------------|-------------------|-------------------|-------------------|
-------------------------|-------------------|-------------------|-------------------|
-------------------------|-------------------|-------------------|-------------------|


  W                   W                   W                   W                   W                 
-------------------|-------------------|-------------------|-------------------|-------------------|
-------------------|-------------------|-------------------|-------------------|-------------------|
-------------------|-------------------|-------------------|-------------------|-------------------|
-------------------|-------------------|-------------------|-------------------|-------------------|
-------------------|-------------------|-------------------|-------------------|-------------------|
-------------------|-------------------|-------------------|-------------------|-------------------|


  W                   W                   W                   W                   W                 
-------------------|-------------------|-------------------|-------------------|-------------------|
-------------------|-------------------|-------------------|-------------------|-------------------|
-------------------|-------------------|-------------------|-------------------|-------------------|
-------------------|-------------------|-------------------|-------------------|-------------------|
-------------------|-------------------|-------------------|-------------------|-------------------|
-------------------|-------------------|-------------------|-------------------|-------------------|


  W                   W                   W                   W                 
-------------------|-------------------|-------------------|-------------------|
-------------------|-------------------|-------------------|-------------------|
-------------------|-------------------|-------------------|-------------------|
-------------------|-------------------|-------------------|-------------------|
-------------------|-------------------|-------------------|-------------------|
-------------------|-------------------|-------------------|-------------------|


                                                         T    T    T    T    T    T    T    T    
  E  E  E  E  E  E  E  E     E  E  E  E  E  E  E  E      S S  S S  S S  S S  S S  S S  S S  S S  
--------------------------|--------------------------|--11-8-11-8-11-8-11-8-11-8-11-8-11-8-11-8-|
--9--------8--------6-----|--9--------8--------6-----|------------------------------------------|
-----5--5-----5--5-----5--|-----5--5-----5--5-----5--|------------------------------------------|
--------------------------|--------------------------|------------------------------------------|
--------------------------|--------------------------|------------------------------------------|
--------------------------|--------------------------|------------------------------------------|


   T    T    T    T    T    T    T    T                                                          
   S S  S S  S S  S S  S S  S S  S S  S S    E  E  E  E  E  E  E  E     E  E  E  E  E  E  E  E   
--11-8-11-8-11-8-11-8-11-8-11-8-11-8-11-8-|--------------------------|--------------------------|
------------------------------------------|--9--------8--------6-----|--9--------8--------6-----|
------------------------------------------|-----8--8-----8--8-----8--|-----8--8-----8--8-----8--|
------------------------------------------|--------------------------|--------------------------|
------------------------------------------|--------------------------|--------------------------|
------------------------------------------|--------------------------|--------------------------|


   W                   W                   W                   W                 
--------------------|-------------------|-------------------|-------------------|
--11----------------|-------------------|-------------------|-------------------|
--------------------|-------------------|-------------------|-------------------|
--------------------|-------------------|-------------------|-------------------|
--------------------|-------------------|-------------------|-------------------|
--------------------|-------------------|-------------------|-------------------|


  W                   W                   W                   W                   W                 
-------------------|-------------------|-------------------|-------------------|-------------------|
-------------------|-------------------|-------------------|-------------------|-------------------|
-------------------|-------------------|-------------------|-------------------|-------------------|
-------------------|-------------------|-------------------|-------------------|-------------------|
-------------------|-------------------|-------------------|-------------------|-------------------|
-------------------|-------------------|-------------------|-------------------|-------------------|


  W                   W                   W                   E  E  E  E  E  E  E  E   
-------------------|-------------------|-------------------|--------------------------|
-------------------|-------------------|-------------------|--8--------6--------8-----|
-------------------|-------------------|-------------------|-----8--8-----8--8-----8--|
-------------------|-------------------|-------------------|--------------------------|
-------------------|-------------------|-------------------|--------------------------|
-------------------|-------------------|-------------------|--------------------------|


  W                   S S S S S S S S S S S S S S S S    S S S S S S S S S S S S S S S S  
-------------------|----------6-6-8-8---------6-6-8-8-|----------6-6-8-8---------6-6-8-8-|
-------------------|--6-6-9-9---------6-6-9-9---------|--6-6-9-9---------6-6-9-9---------|
-------------------|----------------------------------|----------------------------------|
-------------------|----------------------------------|----------------------------------|
-------------------|----------------------------------|----------------------------------|
-------------------|----------------------------------|----------------------------------|


  W                   W                   W                   W                   W                 
--6----------------|-------------------|-------------------|-------------------|-------------------|
-------------------|-------------------|-------------------|-------------------|-------------------|
-------------------|-------------------|-------------------|-------------------|-------------------|
-------------------|-------------------|-------------------|-------------------|-------------------|
-------------------|-------------------|-------------------|-------------------|-------------------|
-------------------|-------------------|-------------------|-------------------|-------------------|


  W                   W                   W                   W                   W                 
-------------------|-------------------|-------------------|-------------------|-------------------|
-------------------|-------------------|-------------------|-------------------|-------------------|
-------------------|-------------------|-------------------|-------------------|-------------------|
-------------------|-------------------|-------------------|-------------------|-------------------|
-------------------|-------------------|-------------------|-------------------|-------------------|
-------------------|-------------------|-------------------|-------------------|-------------------|


  W                   W                   W                   W                   W                 
-------------------|-------------------|-------------------|-------------------|-------------------|
-------------------|-------------------|-------------------|-------------------|-------------------|
-------------------|-------------------|-------------------|-------------------|-------------------|
-------------------|-------------------|-------------------|-------------------|-------------------|
-------------------|-------------------|-------------------|-------------------|-------------------|
-------------------|-------------------|-------------------|-------------------|-------------------|


                                                           PM PM         
  W                   E  Q    E  E  E  E  E     E  Q    E  E  E    Q     
-------------------|-------------------------|-------------------<>6----|
-------------------|--8--8----6--8--6--------|--8--8-------6--8---------|
-------------------|-------------------8--5--|----------8---------------|
-------------------|-------------------------|--------------------------|
-------------------|-------------------------|--------------------------|
-------------------|-------------------------|--------------------------|


   E   E  E   E   E   E   E   E      E   E   E   E  H             E  E  E    Q    E  E   E   
--11--11--L--10--11--13--15--11--|--15--13--11--13--L--------|--<>6------------------6--11--|
---------------------------------|---------------------------|-------8----------------------|
---------------------------------|---------------------------|----------8--<>8----8---------|
---------------------------------|---------------------------|------------------------------|
---------------------------------|---------------------------|------------------------------|
---------------------------------|---------------------------|------------------------------|


      E   E   E   E  E    E   S   S  E      E   E  E   E   E  E  E  E     E  E    E  E  H         
--/<>15--11--15--16-----/18--16p-15-----|--11--11--6--11--11--6--------|--6----------------------|
------------------------------------16--|------------------------9--8--|-----8-------6--L--------|
----------------------------------------|------------------------------|--------<>8--------------|
----------------------------------------|------------------------------|-------------------------|
----------------------------------------|------------------------------|-------------------------|
----------------------------------------|------------------------------|-------------------------|


                                                           T    T    T    T    T    T    T    T    
  E  E  E  E  E  E  E  E     E  E  E  E  E  E    Q         S S  S S  S S  S S  S S  S S  S S  S S  
--------------------------|--------------------<>6~----|--11-6-11-6-11-6--------------------------|
-----6--8--6--8--6--------|-----6--8--6--8--9----------|-----------------13-9-13-9-13-9-11-8-11-8-|
--------------------8--5--|----------------------------|------------------------------------------|
--------------------------|----------------------------|------------------------------------------|
--------------------------|----------------------------|------------------------------------------|
--------------------------|----------------------------|------------------------------------------|


   E  E   E     H         E      E   E  E   S  S  E   E   E   E      E   E  E   S  S  E   E   Q     
--/6--8--10--<>11~--------L--|--15--15--L--15-13-15--13----------|--15--15--L--13-15-13--15--20----|
-----------------------------|---------------------------16--13--|---------------------------------|
-----------------------------|-----------------------------------|---------------------------------|
-----------------------------|-----------------------------------|---------------------------------|
-----------------------------|-----------------------------------|---------------------------------|
-----------------------------|-----------------------------------|---------------------------------|


   S   S  S  S  S   S  S   S  S  S  S   S  S   S  S  S      E   S  S   Q      E.    E.    E   
--18p-15----15-16p-13-15p-11----11-15p-11-13p-10----10-|--/16--16-16-/18----/16---/15---/10--|
---------16------------------13------------------11----|-------------------------------------|
-------------------------------------------------------|-------------------------------------|
-------------------------------------------------------|-------------------------------------|
-------------------------------------------------------|-------------------------------------|
-------------------------------------------------------|-------------------------------------|


     Q.      H        E     W                   H         H            H        H         
--<>15~------------------|-------------------|-----------11--------|--10--------8--------|
-------------------------|-------------------|---------------------|---------------------|
-------------------------|-------------------|---------------------|---------------------|
-------------------------|-------------------|---------------------|---------------------|
-------------------------|-------------------|---------------------|---------------------|
-------------------------|-------------------|---------------------|---------------------|


  H         H            H         H           H         H            Q.      Q.      Q     
-----------15--------|--13--------11--------|-----------11--------|--10------11------10----|
---------------------|----------------------|---------------------|------------------------|
---------------------|----------------------|---------------------|------------------------|
---------------------|----------------------|---------------------|------------------------|
---------------------|----------------------|---------------------|------------------------|
---------------------|----------------------|---------------------|------------------------|


  W                   H.           Q       H         H            H        H         
--8----------------|--L-----------------|-----------11--------|--10--------8--------|
-------------------|--------------------|---------------------|---------------------|
-------------------|--------------------|---------------------|---------------------|
-------------------|--------------------|---------------------|---------------------|
-------------------|--------------------|---------------------|---------------------|
-------------------|--------------------|---------------------|---------------------|


  H         H            H         H           H         H            Q.      Q.      Q     
-----------15--------|--13--------11--------|-----------11--------|--10------11------10----|
---------------------|----------------------|---------------------|------------------------|
---------------------|----------------------|---------------------|------------------------|
---------------------|----------------------|---------------------|------------------------|
---------------------|----------------------|---------------------|------------------------|
---------------------|----------------------|---------------------|------------------------|


  W                   H.           Q       W                 
--8----------------|--L-----------------|-------------------|
-------------------|--------------------|-------------------|
-------------------|--------------------|-------------------|
-------------------|--------------------|-------------------|
-------------------|--------------------|-------------------|
-------------------|--------------------|-------------------|


   S   S  S  S  S  S  S   S  S   S  S  S  S  S  S  S  
-----------------------------------------------------|
--11h-13-13-13-13-13-11h-13-16p-13-13-13-13-13-13-13-|
-----------------------------------------------------|
-----------------------------------------------------|
-----------------------------------------------------|
-----------------------------------------------------|


   S  S  S  S  S  S  S  S  S  S  S  S  S  S  S  S  
--15-15-15-13-13-13-11-11-13-13-13-11-11-11-------|
--------------------------------------------15-15-|
--------------------------------------------------|
--------------------------------------------------|
--------------------------------------------------|
--------------------------------------------------|


   S   S  S  S  S  S  S   S  S   S  S  S  S  S  S  S  
-----------------------------------------------------|
--11h-13-13-13-13-13-11h-13-16p-13-13-13-13-13-13-13-|
-----------------------------------------------------|
-----------------------------------------------------|
-----------------------------------------------------|
-----------------------------------------------------|


   S  S  S  S  S  S  S  S  S  S  S  S  S  S  S  S  
--15-15-15-13-13-13-11-11-13-13-13-11-11-11-------|
--------------------------------------------15-15-|
--------------------------------------------------|
--------------------------------------------------|
--------------------------------------------------|
--------------------------------------------------|


   S   S  S  S  S  S  S   S  S   S  S  S  S  S  S  S  
-----------------------------------------------------|
--11h-13-13-13-13-13-11h-13-16p-13-13-13-13-13-13-13-|
-----------------------------------------------------|
-----------------------------------------------------|
-----------------------------------------------------|
-----------------------------------------------------|


   S  S  S  S  S  S  S  S  S  S  S  S  S  S  S  S  
--15-15-15-13-13-13-11-11-13-13-13-11-11-11-------|
--------------------------------------------15-15-|
--------------------------------------------------|
--------------------------------------------------|
--------------------------------------------------|
--------------------------------------------------|


   S   S  S  S  S  S  S   S  S   S  S  S  S  S  S  S  
-----------------------------------------------------|
--11h-13-13-13-13-13-11h-13-16p-13-13-13-13-13-13-13-|
-----------------------------------------------------|
-----------------------------------------------------|
-----------------------------------------------------|
-----------------------------------------------------|


   S  S  S  S  S  S  S  S  S  S  S  S  S  S  S  S    E   E  E  E  E  E  Q     
--15-15-15-13-13-13-11-11-13-13-13-11-11-11-------|--------------------------|
--------------------------------------------15-15-|--6b--8--L--9--8--6-------|
--------------------------------------------------|---------------------8----|
--------------------------------------------------|--------------------------|
--------------------------------------------------|--------------------------|
--------------------------------------------------|--------------------------|


  E  E  E  E  S S  S S Q       S  S S  S  S   S  S   S  S   S  S   S S  S S  S  
----------------------------|--6s-8-6s-8-11s-13-11s-13-13s-15-13s-15-6s-8-6s-8-|
--6--6--L--8--6-------------|--------------------------------------------------|
----------------8p-5---5----|--------------------------------------------------|
---------------------8------|--------------------------------------------------|
----------------------------|--------------------------------------------------|
----------------------------|--------------------------------------------------|


  S S  S  S S S  S  S  S  S S  S S  S    E     E  E  E  S S    E.  E.  E    
--8-8-----------------------8----8-11-<>11--|--8--8--L--6-8-<>11---6-------|
------11-11-6-6-11-11-11-11---11------------|--------------------------8s--|
--------------------------------------------|------------------------------|
--------------------------------------------|------------------------------|
--------------------------------------------|------------------------------|
--------------------------------------------|------------------------------|


   E.  E.  E  S  S  S  S Q       S S S S S  S  S S S S S S S  S  S S  
------------------------------|--------------------------------------|
--11---8------6h-8p-6h-8------|--8-8-8-6-8-11p-8-6-8-8-8-6-8-11p-8-6-|
-----------8-------------5----|--------------------------------------|
------------------------------|--------------------------------------|
------------------------------|--------------------------------------|
------------------------------|--------------------------------------|


                             \1/                                                             
   S  S  S  S  S   S   S  S  H            S   S  S  S  S  S  S   S  S   S  S  S  S  S  S  S  
--11----11-13-15p-13p-11--------------|-----------------------------------------------------|
-----11------------------13-----------|--11h-13-13-13-13-13-11h-13-16p-13-13-13-13-13-13-13-|
----------------------------15--------|-----------------------------------------------------|
--------------------------------------|-----------------------------------------------------|
--------------------------------------|-----------------------------------------------------|
--------------------------------------|-----------------------------------------------------|


   S  S  S  S  S  S  S  S  S  S  S  S  S  S  S  S  
--15-15-15-13-13-13-11-11-13-13-13-11-11-11-------|
--------------------------------------------15-15-|
--------------------------------------------------|
--------------------------------------------------|
--------------------------------------------------|
--------------------------------------------------|


   S   S  S  S  S  S  S   S  S   S  S  S  S  S  S  S  
-----------------------------------------------------|
--11h-13-13-13-13-13-11h-13-16p-13-13-13-13-13-13-13-|
-----------------------------------------------------|
-----------------------------------------------------|
-----------------------------------------------------|
-----------------------------------------------------|


   S  S  S  S  S  S  S  S  S  S  S  S  S  S  S  S  
--15-15-15-13-13-13-11-11-13-13-13-11-11-11-------|
--------------------------------------------15-15-|
--------------------------------------------------|
--------------------------------------------------|
--------------------------------------------------|
--------------------------------------------------|


   S   S  S  S  S  S  S   S  S   S  S  S  S  S  S  S  
-----------------------------------------------------|
--11h-13-13-13-13-13-11h-13-16p-13-13-13-13-13-13-13-|
-----------------------------------------------------|
-----------------------------------------------------|
-----------------------------------------------------|
-----------------------------------------------------|


   S  S  S  S  S  S  S  S  S  S  S  S  S  S  S  S  
--15-15-15-13-13-13-11-11-13-13-13-11-11-11-------|
--------------------------------------------15-15-|
--------------------------------------------------|
--------------------------------------------------|
--------------------------------------------------|
--------------------------------------------------|


   S   S  S  S  S  S  S   S  S   S  S  S  S  S  S  S  
-----------------------------------------------------|
--11h-13-13-13-13-13-11h-13-16p-13-13-13-13-13-13-13-|
-----------------------------------------------------|
-----------------------------------------------------|
-----------------------------------------------------|
-----------------------------------------------------|


   S  S  S  S  S  S  S  S  S  S  S  S  S  S  S  S    S S S S   E  S S E  E  E    E   
--15-15-15-13-13-13-11-11-13-13-13-11-11-11-------|---------------------------------|
--------------------------------------------15-15-|---------------------------------|
--------------------------------------------------|--5-5-5-5-<>8--5-5-7--------<>7--|
--------------------------------------------------|----------------------8--5-------|
--------------------------------------------------|---------------------------------|
--------------------------------------------------|---------------------------------|


  E.  E.  E    H            S S S S S S S S S S S S S S S S    S S S S S S S S S S S S   Q      
-------------------------|----------------------------------|--------------------------<>6~----|
-------------------------|--------------------------9-8-6-8-|------------6-8-9-8-6-8-9---------|
-------------<>7b--------|------5-7-8-7-5-7-5---7-8---------|--5---5-7-8-----------------------|
--5---6---8--------------|--7-8---------------8-------------|----8-----------------------------|
-------------------------|----------------------------------|----------------------------------|
-------------------------|----------------------------------|----------------------------------|


  E.    E.  E  E.    E.  E     S   S S   S  Q     S  S  S  Q    S  
------<>6-------------------|--------------13----13-11-10-11------|
--8---------8--6---<>8---6--|-------------------------------------|
----------------------------|--8s-10-8s-10------------------------|
----------------------------|-------------------------------------|
----------------------------|-------------------------------------|
----------------------------|-------------------------------------|


   S  S  S  S S S  S S S S S S S S S S    S S S S S S S S S S S S S  S S  S  
--13----15----8---10-------------------|--------------------------8-11-8-11-|
-----13----13---8----8-9-6-------------|------------------6---6-8-----------|
---------------------------8-5-8---5---|------5---5-8-5-8---8---------------|
---------------------------------8---8-|--5-8---8---------------------------|
---------------------------------------|------------------------------------|
---------------------------------------|------------------------------------|


   E   S  S  E   E   E   E   E   E      E   S  S  E   E   E   E   Q     
--15--15-15-15--13--------------13--|--15--15-15-15--13------18--15----|
--------------------16--13--16------|--------------------16------------|
------------------------------------|----------------------------------|
------------------------------------|----------------------------------|
------------------------------------|----------------------------------|
------------------------------------|----------------------------------|


   E   S  S  E   E   E   E   E   E      S   S   S  S  S  S  S  S  S   S  S  S    Q     
--15--15-15-15--13--------------13--|--13h-15p-13----------13-15-18p-15----15-<>15----|
--------------------16--13--16------|-------------16-13-16--------------18------------|
------------------------------------|-------------------------------------------------|
------------------------------------|-------------------------------------------------|
------------------------------------|-------------------------------------------------|
------------------------------------|-------------------------------------------------|


   E   S  S  E   E   E   E   E   E      E   S  S  E   E   E   E   Q     
--15--15-15-15--13--------------13--|--15--15-15-15--13------18--15----|
--------------------16--13--16------|--------------------16------------|
------------------------------------|----------------------------------|
------------------------------------|----------------------------------|
------------------------------------|----------------------------------|
------------------------------------|----------------------------------|


   E   S  S  E   E   E   E   E   E      S   S  S  S  S  S  S   S E   E   E   E   
--15--15-15-15--13--------------13--|--15p-13----------13-15p-13-8--11--13--15--|
--------------------16--13--16------|---------16-13-16--------------------------|
------------------------------------|----------------------------5---8--10--12--|
------------------------------------|-------------------------------------------|
------------------------------------|-------------------------------------------|
------------------------------------|-------------------------------------------|


   S   S  S  S  S  S  S   S  E   E   E  E     W                 
--15p-13----------13--------15--13--11--8--|-------------------|
---------16-13-16----16p-13----------------|-------------------|
----------------------------12--10---8--5--|-------------------|
-------------------------------------------|-------------------|
-------------------------------------------|-------------------|
-------------------------------------------|-------------------|


   S  S  S  S  S  S  S  S  S  S  S  S  S  S  S  S     S  S  S  S  S. S. S  S  S  S  S  Q       
--------------------------------------------------|-------------------------------------------|
--------------------------------------------------|--------13----13-15-16-15-16-18-16-18b~----|
--------------------------------------12----12-13-|--12-13----15------------------------------|
--13-12----12----------------12-13-15----15-------|-------------------------------------------|
--------15----15-11----11-15----------------------|-------------------------------------------|
--------------------15----------------------------|-------------------------------------------|


   S  S  S  S  S  S  S  S  S  S  S  S  S  S  S  S     S  S  S  S  S  S  S  S  H           
--13----------------------13----13-15-13-15-16----|--16-15-18-15-------------18b~--------|
-----16-15-13----13-15-16----16----------------18-|--------------18-16-15-16-------------|
--------------13----------------------------------|--------------------------------------|
--------------------------------------------------|--------------------------------------|
--------------------------------------------------|--------------------------------------|
--------------------------------------------------|--------------------------------------|


                                             W  W                                                
   S  S  S  S  S  S  S  S  S  S  S  S  S  S  S  S     S  S  S  S  S  S  S  S  S  S  S  S  Q      
--20-18-20-16-20-15-13-------------13-15-16-18-18-|--18-16-18-15-18-13----------------13-16~----|
-----------------------16-15-13-15----------------|--------------------16-15-13-15-16-----------|
--------------------------------------------------|---------------------------------------------|
--------------------------------------------------|---------------------------------------------|
--------------------------------------------------|---------------------------------------------|
--------------------------------------------------|---------------------------------------------|


   S  S  S  S  S  S  S  S  S  S  S  S  S  S  S  S  
--------13----13-15-13----13----------------------|
--13-16----16----------16----16-15-16-15-13-------|
--------------------------------------------15-12-|
--------------------------------------------------|
--------------------------------------------------|
--------------------------------------------------|


   S  S  S  S  S  S  S  S  S  S  S  S  S  S  S  S     Q     E    Q     E   E   E   
--------------------------------------------------|--20----18S--23----18--20--18--|
--------------------------------------------13-15-|-------------------------------|
--13-15-13-12----------------------12-13-15-------|-------------------------------|
--------------15-13-12----12-13-15----------------|-------------------------------|
-----------------------15-------------------------|-------------------------------|
--------------------------------------------------|-------------------------------|


   E    E   E    E   E    E    Q        E   E   E    E   E   E    Q     
--20S--18--15S--13-----------/15----|--22--22s--6--/23--22--20s--18----|
--------------------13S--11---------|----------------------------------|
------------------------------------|----------------------------------|
------------------------------------|----------------------------------|
------------------------------------|----------------------------------|
------------------------------------|----------------------------------|


      E     E   E   E   E    E   Q     
--/<>13--<>13--\1--15--13s--20--20----|
--------------------------------------|
--------------------------------------|
--------------------------------------|
--------------------------------------|
--------------------------------------|


      (Octave pedal/Harmonizer)                                                                 
      W                        W    W    W    W  W  W   W    W    W    W    W    W  W     W  W  
      S                        S    S    S    S  S  S   S    S    S    S    S    S  S     S  S  
------------------------------------------------15-20s-15--------------------------20s-<>15----|
-------------------------------------------<>16-----------<>16----------------<>16----------16-|
--------------------------------------<>17---------------------<>17------<>17------------------|
---------------------------------<>17-------------------------------<>17-----------------------|
--/<>15---------------------<>18---------------------------------------------------------------|
-----------------------------------------------------------------------------------------------|


    W  W   W  W   W    W    W    W    W  T    W    W    T      
    S  S   S  S   S    S    S    S    S  S    S    S    Q      
---------/15-20s-15---------------------20-----------<>20~----|
------16------------<>16------<>16--------------<>16----------|
--/17--------------------<>17------<>17----<>17---------------|
--------------------------------------------------------------|
--------------------------------------------------------------|
--------------------------------------------------------------|


     T         T         T                   T         T         T                 
     S    S    S    S    S    S    S    S    S    S    S    S    S    S    S    S  
--<>20-<>15-<>20-<>15-<>20-<>15-<>13-<>15-<>20-<>15-<>20-<>15-<>20-<>15-<>13-<>15-|
----------------------------------------------------------------------------------|
----------------------------------------------------------------------------------|
----------------------------------------------------------------------------------|
----------------------------------------------------------------------------------|
----------------------------------------------------------------------------------|


                                             tap bend     
     T         T         T                          T     
     S    S    S    S    S    S    S    S    Q      Q     
--<>20-<>15-<>20-<>15-<>20-<>15-<>13-<>15-<>17b-----L----|
---------------------------------------------------------|
---------------------------------------------------------|
---------------------------------------------------------|
---------------------------------------------------------|
---------------------------------------------------------|


   S. S. S  S  S  S  S  S  S  S  S  S  S  S  S      E   Q     E   E   E   Q     
-----------------------------------10-12-13-15-|--/18--18----20--18------------|
-----------------------------11-13-------------|---------------------20--16----|
-----------------10-12-10-12-------------------|-------------------------------|
-----------10-12-------------------------------|-------------------------------|
--10-11-13-------------------------------------|-------------------------------|
-----------------------------------------------|-------------------------------|


   T        T        T        T        T        T        T        T        
   |--3--|  |--3--|  |--3--|  |--3--|  |--3--|  |--3--|  |--3--|  |--3--|  
   S  S  S  S  S  S  S  S  S  S  S  S  S  S  S  S  S  S  S  S  S  S  S  S  
--20-15-11-20-11-15-20-15-11-20-11-15-20-15-11-20-11-15-20-15-11-20-11-15-|
--------------------------------------------------------------------------|
--------------------------------------------------------------------------|
--------------------------------------------------------------------------|
--------------------------------------------------------------------------|
--------------------------------------------------------------------------|


   S  S  S  S  E   E    E    E   E   E   
--20-20-20-20-18--15s--18s--15------15--|
--------------------------------18------|
----------------------------------------|
----------------------------------------|
----------------------------------------|
----------------------------------------|


   T     T     T     T     T     T     T     T     T     T     T     T     T     T     T     T     
   T  T  T  T  T  T  T  T  T  T  T  T  T  T  T  T  T  T  T  T  T  T  T  T  T  T  T  T  T  T  T  T  
--20-11-20-11-18-11-18-11-20-11-20-11-16-11-16-11-20-11-20-11-18-11-18-11-20-11-20-11-15-11-15-11-|
--------------------------------------------------------------------------------------------------|
--------------------------------------------------------------------------------------------------|
--------------------------------------------------------------------------------------------------|
--------------------------------------------------------------------------------------------------|
--------------------------------------------------------------------------------------------------|


   S   S  S  S  S  S  S  S  S  S  S  S  E   E      S  S  S  S  S  S  S  S  H            
--20p-16----------------16-18-16-18-20-23------|-----18----18----22----22-22pbr--------|
---------16----------16--------------------21--|--18----18----18----18-----------------|
------------17----17---------------------------|---------------------------------------|
---------------18------------------------------|---------------------------------------|
-----------------------------------------------|---------------------------------------|
-----------------------------------------------|---------------------------------------|


   S S  S  S  S  S  S  S  H                H           Q.        S  S  
----------------------10-16pbr~--------|------------------------------|
-------------10-11-13------------------|--18b~--------18b~------18-16-|
-----8-10-12---------------------------|------------------------------|
--12-----------------------------------|------------------------------|
---------------------------------------|------------------------------|
---------------------------------------|------------------------------|


   E   E   E   E   Q.      S   S     E   E   E   E   E   E   E   E   
---------------------------------|----------------------------------|
--18--16-------------------------|----------------------------------|
----------17--15~--L-------------|--15--------------------------15--|
--------------------------15h-17-|------17--16--15------15--17------|
---------------------------------|------------------18--------------|
---------------------------------|----------------------------------|


   E   E   E   E     H            Q     Q     E  E   E   E      Q.        Q     Q     E   
-------------------------------|-------15----16-----18--16--|--18br------18----16----15--|
------16--18------<>16~--------|----------------------------|----------------------------|
--17----------15---------------|----------------------------|----------------------------|
-------------------------------|----------------------------|----------------------------|
-------------------------------|----------------------------|----------------------------|
-------------------------------|----------------------------|----------------------------|


   E    E   E   E   E   E   E   E     Q     E   E   E.     S  Q     
--16p--15--------------------------|-------------------------------|
-----------16--------------18--16--|--L----18--16--18br---16-------|
---------------15------15----------|-------------------------15----|
-------------------17--------------|-------------------------------|
-----------------------------------|-------------------------------|
-----------------------------------|-------------------------------|


   E   E   E   E  E   E   E   E     E   E   E   E   S   S  S  S  Q     
------18-------------15----------|---------11--13--15p-13----13-18----|
--16------16--13--L------13--11--|--9--11-----------------16----------|
---------------------------------|------------------------------------|
---------------------------------|------------------------------------|
---------------------------------|------------------------------------|
---------------------------------|------------------------------------|


     whammy bar                                                     
     Q          Q        Q        Q

Comentarios del colaborador: Lo saque del guitar pro porfavor incluyanlo

Calificar esta versión:
Aviso: Este fichero es trabajo propio de su transcriptor y representa su interpretación personal de la canción. El material contenido en esta página es para exclusivo uso privado, por lo que se prohibe su reproducción o retransmisión, así como su uso para fines comerciales.