Introduccion, Dragon Ball Gt (tablatura)

Autor: boy_lomas | 32742 visualizaciones



1:3-3-------3-5-3--------------------------------------5-3---------
2:-----5-6--------6-5----5-5-----5-6-5-----------------------------
3:---------------------7-----6-7-------7-5-4---2-2-2-5-----5-------
4:-----------------------------------------------------------------
5:-----------------------------------------------------------------
6:-----------------------------------------------------------------

1:-----------------------------------------------------------------
2:-3-5-6-5-3-5-6-5-3-----------------------------------------------
3:-----------------------------------------------------------------
4:-----------------------------------------------------------------
5:-----------------------------------------------------------------
6:-----------------------------------------------------------------





Calificar esta versión:
Aviso: Este fichero es trabajo propio de su transcriptor y representa su interpretación personal de la canción. El material contenido en esta página es para exclusivo uso privado, por lo que se prohibe su reproducción o retransmisión, así como su uso para fines comerciales.