Tapion's Theme, Dragon Ball (tablatura)

Autor: matijulian | 41177 visualizaciones

Esto se toca al comienzo:
|-----7-9-5-7------------------7----------------
|--7--------------7-9-10---10------10--9--------
|-----------------------------------------------
|-----------------------------------------------
|-----------------------------------------------
|-----------------------------------------------
Despues se toca esta parte:
|----------7-6-4-6-------------------------8----
|-------7-------------6-8-9---9-8---6-4-6-----6-
|--6-6-6----------------------------------------
|-----------------------------------------------
|-----------------------------------------------
|-----------------------------------------------

|----------8-6-4-6---------------6--------------
|-------6-------------6-8-9---9-----9-8---------
|--5-5-5----------------------------------------
|-----------------------------------------------
|-----------------------------------------------
|-----------------------------------------------
Y luego se repite la segunda parte
Calificar esta versión:
Aviso: Este fichero es trabajo propio de su transcriptor y representa su interpretación personal de la canción. El material contenido en esta página es para exclusivo uso privado, por lo que se prohibe su reproducción o retransmisión, así como su uso para fines comerciales.