Melodia De Tapion, Dragon Ball (tablatura)

Autor: angelty507 | 23853 visualizaciones

1-------------------------------------------------------------
2-------------------------------------------------------------
3-------------------------------------------------------------
4---------3----10---8---6---8---3---5---6---6---8---6---5-----
5--3---3------------------------------------------------------
6-------------------------------------------------------------



1------------------------------------------------------------
2------------------------------------------------------------
3------------------------------------------------------------
4--------3-----10----8--6--8-----3--5--6----6--5--3--2--3----
5--3---3-----------------------------------------------------
6------------------------------------------------------------

Comentarios del colaborador: LA ENCONTRE YO CON COLABORACION DE OTRA CANCION DE ESTA PAGINA ESPERO LES GUSTE, SUENA IGUAL QUE LA ORIGINAL

Calificar esta versión:
Aviso: Este fichero es trabajo propio de su transcriptor y representa su interpretación personal de la canción. El material contenido en esta página es para exclusivo uso privado, por lo que se prohibe su reproducción o retransmisión, así como su uso para fines comerciales.