El Poder Nuestro Es Opening, Dragon Ball (tablatura)

Autor: bayron_17 | 14896 visualizaciones

BUENO ESTA TABLATURA LA ISE SAKANDO LAS NOTAS DE LA FLAUTA DE ESTA CANCION EJEJEJ PERO ES MIA SIN DUDA OJALA LES GUSTE ^^


Acercándose el peligro viene ya,
y para llorar no es el tiempo ahora. 
        
1|-------0-1-0---------|--3-3-1-0-0-------------------------|
2|-3-3-3-------3-1-3-3-|-3-----------3-1-3-3----------------|
3|---------------------|------------------------------------|
4|---------------------|------------------------------------|
5|---------------------|------------------------------------|
6|---------------------|------------------------------------|

Me siento subir más y más la adrenalina,
los héroes de la historia seremos

1|-------0-1-0---------|-----3-3-1-0-0---------3-3----------|
2|-3-3-3-------3-1-3-3-|-3------------3-1-3-3---------------|
3|---------------------|------------------------------------|
4|---------------------|------------------------------------|
5|---------------------|------------------------------------|
6|---------------------|------------------------------------|

Realidad tu sueño hoy será,
listo estoy para poder pelear, victoria ovtendre

1|-7-5-10-8-7-5-7--------|--7-5-10-8-7------------------8-7-|
2|---------------8-10-12-|------------10-10-12-12-12-12-----|
3|-----------------------|----------------------------------|
4|-----------------------|----------------------------------|
5|-----------------------|----------------------------------|
6|-----------------------|----------------------------------|

juega niño, el poder nuestro es
hoy seremos Dragon Ball Zeta

1|-10-9-7----|----7-7--------|-10-9-7----|--------7-7-------|
2|--------10-|-10-----10-7-7-|--------10-|-7-7-10-----------|
3|-----------|---------------|-----------|------------------|
4|-----------|---------------|-----------|------------------|
5|-----------|---------------|-----------|------------------|
6|-----------|---------------|-----------|------------------|

Procura llegar al final y luchar con valor

1|-7-9-10-10-7-|-9-10-7-|-7/9-9-6-|-7/9-9-6-----------------|
2|-------------|--------|---------|-------------------------|
4|-------------|--------|---------|-------------------------|
3|-------------|--------|---------|-------------------------|
5|-------------|--------|---------|-------------------------|
6|-------------|--------|---------|-------------------------|

en los campos deja las flores crecer feliz

1|-10-9-7----|----------------------------------------------|
2|--------10-|-7-7-7-9-9-9-7-9-9/10-------------------------|
3|-----------|----------------------------------------------|
4|-----------|----------------------------------------------|
5|-----------|----------------------------------------------|
6|-----------|----------------------------------------------|

 Te convertirás en un gran rival,
aventuras podrás disfrutar

1|-10-9-7----|----7-7--------|-10-9-7----|--------7-7-------|
2|--------10-|-10-----10-7-7-|--------10-|-7-7-10-----------|
3|-----------|---------------|-----------|------------------|
4|-----------|---------------|-----------|------------------|
5|-----------|---------------|-----------|------------------|
6|-----------|---------------|-----------|------------------|

Pelea niña hoy sin temor, el poder nuestro es

1|-7-9-10-10-7-|-9-10-7-|-7/9-9-6-|-7/9-9-6-----------------|
2|-------------|--------|---------|-------------------------|
3|-------------|--------|---------|-------------------------|
4|-------------|--------|---------|-------------------------|
5|-------------|--------|---------|-------------------------|
6|-------------|--------|---------|-------------------------|

Y seremos para siempre Dragon Ball Z..

1|-10-9-7----|----------------------------------------------|
2|--------10-|-7-7-7-9-9-9-7-9-9/10-------------------------|
3|-----------|----------------------------------------------|
4|-----------|----------------------------------------------|
5|-----------|----------------------------------------------|
6|-----------|----------------------------------------------|
Calificar esta versión:
Aviso: Este fichero es trabajo propio de su transcriptor y representa su interpretación personal de la canción. El material contenido en esta página es para exclusivo uso privado, por lo que se prohibe su reproducción o retransmisión, así como su uso para fines comerciales.