Dan Dan Kokoro, Dragon Ball (tablatura)

Autor: ledes | 21191 visualizaciones

1)3--3---0--1--3--5--3--1--0------0--0---------0--1--0----------
2)----------------------------3----------1--3------------3--1--0
3)--------------------------------------------------------------
4)--------------------------------------------------------------
5)--------------------------------------------------------------
6)--------------------------------------------------------------

1)-------------5---3--3-----------0--3--3---------0--1--0------
2)----------1-------------1---3-------------1--3-----------3--1
3)2---2--2-----------------------------------------------------
4)-------------------------------------------------------------
5)-------------------------------------------------------------
6)-------------------------------------------------------------

1)-------------------------------------------------------------
2)1--1h3---0h1--1--0--1----------------------------------------
3)-------------------------------------------------------------
4)-------------------------------------------------------------
5)-------------------------------------------------------------
6)-------------------------------------------------------------

h=Hammer on



diganme si tengo algun error

gracias ;)
Calificar esta versión:
Aviso: Este fichero es trabajo propio de su transcriptor y representa su interpretación personal de la canción. El material contenido en esta página es para exclusivo uso privado, por lo que se prohibe su reproducción o retransmisión, así como su uso para fines comerciales.