She Dies, Draconian (tablatura)

Autor: zpawn | 23555 visualizaciones



Intro - Riff I (0:24)

Gtr I

E|-------------------------------------------------------|
B|-------------------------------------------------------|
G|------------------------------9--7-9-------------------|
D|-10--9-10-7----/10--9-10-7-----------10---7/10--9-10-7-|
A|-------------------------------------------------------|
E|-------------------------------------------------------|

Gtr II
Lo mismo pero mas lento.

E|-------------------------------------------------------|
B|-------------------------------------------------------|
G|-------------------------------------------------------|
D|-------------------------------------------------------|
A|------------------------------7--5-7-------------------|
E|--8--7-8-5-----/8---7-8-5------------8----5/8---7-8-5--|



Riff II (0:46)

   P.M.          P.M.
E|-----------------------------|
B|-----------------------------|
G|-----------------------------|
D|-22-2----------22-2----------|   x4
A|-22-2----------22-2----------|
E|-00-0-7-7-8-8\-00-0-1-1-3-3--|
   .. .          .. .


Riff III (1:09)

E|-------------------|-------------------|
B|-------------------|-------------------|
G|------------5------|------5------5-----|
D|-7---5--3---5--5---|-7----5--3---5--5--|
A|-7---5--3---3--5---|-7----3--3---3--5--|
E|-5---3--1------3---|-5-------1------3--|


Riff III (1:55)

E|-------------------|--------------------|
B|-------------------|--------------------|
G|------------5------|-------5------5-----|
D|-7---5--3---5--5---|-7---7-5--3---5--5--|
A|-7---5--3---3--5---|-7---7-3--3---3--5--|
E|-5---3--1------3---|-5---5----1------3--|



Riff I (2:18)


Gtr I

E|-------------------------------------------------------|
B|-------------------------------------------------------|
G|------------------------------9--7-9-------------------|  x2
D|-10--9-10-7----/10--9-10-7-----------10---7/10--9-10-7-|
A|-------------------------------------------------------|
E|-------------------------------------------------------|

Gtr II
Lo mismo pero mas lento.

E|-------------------------------------------------------|
B|-------------------------------------------------------|
G|-------------------------------------------------------|
D|-------------------------------------------------------|  x2
A|------------------------------7--5-7-------------------|
E|--8--7-8-5-----/8---7-8-5------------8----5/8---7-8-5--|


Solo (3:41)


E|------------------------------------------------------------|
B|-8^10------10p8---------------------------------------------|
G|----------------9~~~---------------7-5---10p7-9---------7-5-|
D|----------------------10-9----9\5--------------------5------|
A|------------------------------------------------------------|
E|------------------------------------------------------------|



Riff IV (4:20)

E|-----------------------|
B|-----------------------|
G|------------------5----|
D|-7---7-5--2-3---3-5----|   x2
A|-7---7-5--2-3---3-3----|
E|-5---5-3--0-1---1------|

E|-----------------------|
B|-----------------------|
G|------------------5----|
D|-7---7-5--5-3---3-5----|      
A|-7---7-5--5-3---3-3----|
E|-5---5-3--3-1---1------|

E|-----------------------|
B|-----------------------|
G|-----------------------|
D|-7---7-5----3---3-2----|      
A|-7---7-5----3---3-2----|
E|-5---5-3----1---1-0----|

             P.M.
E|--------------------------|
B|--------------------------|
G|---------------------5----|
D|-7---7-5---555-3---3-5----|      
A|-7---7-5---555-3---3-3----|
E|-5---5-3---333-1---1------|
             ...

E|------------------------|
B|------------------------|
G|------------------------|
D|-7---7-5---5-3---3-2----|      
A|-7---7-5---5-3---3-2----|
E|-5---5-3---3-1---1-0----|


Riff I (5:28)

E|-------------------------------------------------------|
B|-------------------------------------------------------|
G|------------------------------9--7-9-------------------|
D|-10--9-10-7----/10--9-10-7-----------10---7/10--9-10-7-|
A|-------------------------------------------------------|
E|-------------------------------------------------------|


Riff III (5:52)


E|-------------------|-------------------|
B|-------------------|-------------------|
G|------------5------|------5------5-----|
D|-7---5--3---5--5---|-7----5--3---5--5--|
A|-7---5--3---3--5---|-7----3--3---3--5--|
E|-5---3--1------3---|-5-------1------3--|

E|-------------------|-------------------|--------|
B|-------------------|-------------------|--------|
G|------------5------|------5------5-----|--------|
D|-7---5--3---5--5---|-7----5--3---5--5--|-7------|
A|-7---5--3---3--5---|-7----3--3---3--5--|-7------|
E|-5---3--1------3---|-5-------1------3--|-5------|



Simbologia.

| /    slide up
| \    slide down
| h    hammer-on
| p    pull-off
| ~    vibrato
| ^    bend
| P.M. Palm mute





Calificar esta versión:
Aviso: Este fichero es trabajo propio de su transcriptor y representa su interpretación personal de la canción. El material contenido en esta página es para exclusivo uso privado, por lo que se prohibe su reproducción o retransmisión, así como su uso para fines comerciales.