Pobre Pibe, Dosis Punk (acordes)

Autor: joaquin antonio | 36350 visualizaciones

a5b5d5fsos5g5
D5                  A5
 Gente de mierda en un barrio de mierda
G5                             A5
 donde todo lo que hagas será usado en tu contra
D5                 A5
 pisando mierda en un barrio de mierda
G5                              A5         G#5/A5
 donde aunque no lo hagas será usado en tu contra


C#5/D5
 una vieja que se asoma
A5                           G5
 y que mira lo que estas haciendo
                    A5
 para luego hacerte la denuncia
               B5
llega el patrullero y te golpea
     F#5
y te quita la cadena
       G5                          A5
porque no entiende que sos solo un pobre
              D5
un pobre pibe punk


Punteo 1:

1|------------------|----------------|
2|------------------|----------------|
3|------------------|----------------|
4|-7-5-4----5-4-----|---4-5--5/7-5/7-|
5|-------7------7-5-|-7--------------|
6|------------------|----------------|


D5              A5
 si sos pendejo y tenes amigos
G5                             A5
 cuando salís a la calle ya te ven como asesino
D5                     A5
 niegan a muerte haber vivido lo mismo
G5                           A5           G#5/A5
 seguro nacieron viejos y nunca fueron pendejos

C#5/D5                A5                 G5
 una vieja disimula y mira de reojo tu remera
                    A5
 y ve las calaveras dice que sos drogadicto
B5                        F#5
 te marcan, te crucifican mala influencia
     G5                        A5
para sus bebes que luego van a ser peor
                  D5
que un pobre pibe punk

Punteo 2:

1|-------------------|-------------------------------|
2|-------------------|-------------------------------|
3|-------------------|-------------------------------|
4|-7-5-4----5-4------|-5-4-4-4-4-4-4--5-4-5--5/7-5/7-|
5|-------7-------7-5-|-------------------------------|
6|------------------|--------------------------------|

1|-----------------|---------------|
2|-----------------|---------------|
3|-----------------|---------------|
4|-7-5-4---5-4-----|---4-5-5/7-5/7-|
5|-------7-----7-5-|-7-------------|
6|-----------------|---------------|

D5
 y ni hablar si alguna piba
A5
 se junto con tu barrita
G5
 seguro que es una puta
A5                     ///[deslizar la pua sobre las cuerdas]
 y le cuentan a su padre
B5
 que la vieron en tu cama
F#5                        G5                     A5
 cuando en realidad solo fumaban un cigarro en la plaza

y pobre pibe punk
y pobre pibe punk
y pobre pibe punk
y pobre pibe punk
Calificar esta versión:
Aviso: Este fichero es trabajo propio de su transcriptor y representa su interpretación personal de la canción. El material contenido en esta página es para exclusivo uso privado, por lo que se prohibe su reproducción o retransmisión, así como su uso para fines comerciales.