Mi Zapatilla Punk, Dosis Punk (acordes)

Autor: joaquin antonio | 28332 visualizaciones

a5c5d5e5g5


Intro:

F#5/G5


                     G5
Me levanto y ya no esta
                    A5
yo no se porque se fue
                    C5
tal vez se canso de mi 
D5
  es mi zapatilla punk

F#5/G5 F#5/G5  D5

                    G5
sin su olor no se vivir
                  A5
un vacío en mi placard
                   C5
triste y solo buscare
D5
  a mi zapatilla punk


G5  F#5/G5  F#5/G5


         C5                     G5
llora el talco en su oscura soledad
      D5                      E5
y una media se tiro por el balcón
        C5                         G5
se emborrachan los cordones y yo estoy
D5                G5
sin mi zapatilla punk

F#5/G5  F#5/G5  D5

PUNTEO:

1|-----------------------------|
2|-----------------------------|
3|------4-4-5b-4---------------|
4|-/5-5----------5----4/5--4/5-|
5|-----------------------------|
6|-----------------------------|

1|----------------------------|
2|----------------------------|
3|-----4-4-5b-4---------------|
4|-5-5----------7----6/7--6/7-|
5|----------------------------|
6|----------------------------|

1|----------------------------|
2|----------------------------|
3|-----4-4-5b-4---------------|
4|-5-5----------5----4/5--4/5-|
5|----------------------------|
6|----------------------------|

1|----------------------------|
2|----------------------------|
3|-----7-5-4------------------|
4|-5-5-------7-5-----4/5--4/5-|
5|----------------------------|
6|----------------------------|

llora el talco en su oscura soledad
y una media se tiro por el balcón
se emborrachan los cordones y yo estoy
sin mi zapatilla punk





Calificar esta versión:
Aviso: Este fichero es trabajo propio de su transcriptor y representa su interpretación personal de la canción. El material contenido en esta página es para exclusivo uso privado, por lo que se prohibe su reproducción o retransmisión, así como su uso para fines comerciales.