Anarquista, Dosis Punk (tablatura)

Autor: joaquin antonio | 21992 visualizaciones

Intro:

1|---------------------------|
2|---------------------------|
3|-5-5-----------5-5-----7-7-|
4|-5-5--2-3-2-0--5-5-----7-7-|
5|-3-3-----------3-3-2/3-5-5-|
6|---------------------------|

1|--------------------------------------|
2|--------------------------------------|
3|-5-5-------------------------5-5------|
4|-5-5-2-3-2-3/5-5-5-5-5-5-3-0-5-5-5-5--|
5|-3-3-------------------------3-3-5-5--|
6|---------------------------------3-3--|(x2)


1|----------------------------------|
2|----------------------------------|
3|--5-------7------9----10----------|
4|--5-------7------9----10--10------|
5|--3-------5------7----8---10------|
6|--------------------------8-------|(x2)


C5
En el barrio existe
F5
si existe de verdad
C5
se viste como un croto
G5
ama la soledad

C5
todo su pasado
F5
el quiere emborrachar
G5
a todos los conchetos
C5   C5    G5    G5
juro que va a matar

habla de anarquía
habla de ramones
habla de la mugre
que hay en los rincones

sueña con la muerte
que es su gran amor
ama la violencia
busca el dolor

A5              F5
anarquista te tenes que ocultar
C5                 G5
que la yuta te quiere limpiar
A5           F5
anarquista deja de joder
C5                 G5
tanta mugre no te deja ver


--Intro--


D5
En el barrio existe
G5
si existe de verdad
D5
se viste como un croto
A5
ama la soledad

D5
todo su pasado
G5
el quiere emborrachar
A5
a todos los conchetos
D5   D5    A5    A5
juro que va a matar

habla de anarquía
habla de ramones
habla de la mugre
que hay en los rincones

sueña con la muerte
que es su gran amor
ama la violencia
busca el dolor

B5              G5
anarquista te tenes que ocultar
D5                 A5
que la yuta te quiere limpiar
B5           G5
anarquista deja de joder
D5                 A5
tanta mugre no te deja ver


Termina en: D5
Calificar esta versión:
Aviso: Este fichero es trabajo propio de su transcriptor y representa su interpretación personal de la canción. El material contenido en esta página es para exclusivo uso privado, por lo que se prohibe su reproducción o retransmisión, así como su uso para fines comerciales.