Barricada, Dos Minutos (tablatura)

Autor: Anónimo | 35210 visualizaciones

Ahí Uds. Ven los tiempos...

Intro:
|------------------------------------------------------------------|
|------------------------------------------------------------------|
|------------------------------------------------------------------|
|------------------------------------------------------------------|   x1
|---------------------------------33333333--55555555--77777777-----|
|-------------------55555555---------------------------------------|

|------------------------------------------------------------------|
|------------------------------------------------------------------|
|------------------------------------------------------------------|
|---------------------------------------------------101010101010---|   x1
|-------------------------------33333333--55555555--8 8 8 8 8 8----|
|------------------55555555----------------------------------------|

|------------------------------------------------------------------|
|------------------------------------------------------------------|
|------------------------------------------------------------------|
|----------------------5~~~7~~~/101010-----------------------------|   x1
|------------------7~~~3~~~5~~~/ 8 8 8-----------------------------|
|------------------5~~~--------------------------------------------|

|------------------------------------------------------------------|
|------------------------------------------------------------------|
|------------------------------------------------------------------|
|----------------------/555/777/101010-----------------------------|   x2
|------------------777/333/555/8  8  8-----------------------------|
|------------------555---------------------------------------------|

Versos:
|------------------------------------------------------------------|
|------------------------------------------------------------------|
|------------------------------------------------------------------|
|----------------------/555/777/101010-----------------------------|   x10
|------------------777/333/555/8  8  8-----------------------------|
|------------------555---------------------------------------------|
Barricada Pxlicial ay ke enfrentar..

|----------|
|----------|
|----------|
|----------|   x1 
|---7~~~---|
|---5~~~---|

Final:
|------------------------------------------------------------------|
|------------------------------------------------------------------|
|------------------------------------------------------------------|
|------------------------------------------------------------------|   x1
|-----------------33333333--55555555--88888888---------------------|
|--------55555555--------------------------------------------------|

|------------------------------------------------------------------|
|------------------------------------------------------------------|
|------------------------------------------------------------------|
|---------------------------------101010101010---------------------|   x1
|-----------33333333--55555555----8 8 8 8 8 8----------------------|
|--55555555--------------------------------------------------------|

|------------------------------------------------------------------|
|------------------------------------------------------------------|
|------------------------------------------------------------------|
|----------------/555/777/101010-----------------------------------|   x2
|-------------777/333/555/ 8 8 8-----------------------------------|
|-------------555--------------------------------------------------|

|----------|
|----------|
|----------|
|----------|   x1 
|---7~~~---|
|---5~~~---|

Fin.

Fuente original: LaCuerda
Colaborador original: Patricio Aravena Alfaro [sin_nxmbre@hotmail.com]
Calificar esta versión:
Aviso: Este fichero es trabajo propio de su transcriptor y representa su interpretación personal de la canción. El material contenido en esta página es para exclusivo uso privado, por lo que se prohibe su reproducción o retransmisión, así como su uso para fines comerciales.