Die Mother Fucker Die, Dope (tablatura)

Autor: asdf_ñlkj155 | 35957 visualizaciones

Intro: 
D:----------------------------------------------------------
A:----------------------------------------------------------
F:----------------------------------------------------------
C:----------------------------------------------------------
G:----------------------------------------------------------
C:-3-0-0--0-3-0-0--0--------3-0-0--0-3-0-0--0---------------
  

D:----------------------------------------------------------
A:----------------------------------------------------------
F:----------------------------------------------------------
C:----------------------------------------------------------
G:----------------------------------------------------------
C:-3-0-0--0-3-0-0--0-3-0-3-0-3-0-0--0-3-0-0--0-3-0-3-0-3-0-0
  

D:----------------------------------------------------------
A:----------------------------------------------------------
F:----------------------------------------------------------
C:----------------------------------------------------------
G:--------------------------------------6-------------------
C:-0-3-0-0--0-3-0-3-0-3-0-0--0-3-0-0--0-6----3-0-0--0-3-0-0-
 
D:----------------------------------------------------------
A:----------------------------------------------------------
F:----------------------------------------------------------
C:----------------------------------------------------------
G:-----------------------------6----------------------------
C:-0-3-0-3-0-3-0-0--0-3-0-0--0-6---3-0-0--0-3-0-0--0-3-0-3-0
 
D:----------------------------------------------------------
A:----------------------------------------------------------
F:----------------------------------------------------------
C:----------------------------------------------------------
G:-------------------0--------------------------------------
C:-3-0-0--0-3-0-0--0-0--------------------------------------

Intro Parte 2 (2x)
D:----------------------------------------------------------
A:------3-------------3-------------3-------------3---------
F:------2-------------2-------------2-------------2---------
C:------0-------------0-------------0-------------0---------
G:----0-0-----------0-0-----------0-0-----------0-0-----0---
C:-3--0-0--0-3-0-3--0-0--0-3-0-3--0-0--0-3-0-3--0-0-----0---
   ~~            ~~            ~~            ~~   
 
Verso
D:----------------------------------------------------------
A:----------------------------------------------------------
F:----------------------------------------------------------
C:----------------------------------------------------------
G:---------------------3------------------------6-----------
C:-0-0--0-0-0-3-0-0--0-3----0-0--0-0-0-3-0-0--0-6-----------
  

D:----------------------------------------------------------
A:----------------------------------------------------------
F:----------------------------------------------------------
C:----------------------------------------------------------
G:---------------------3------------------6--2--------------
C:-0-0--0-0-0-3-0-0--0-3---0-0--0-0-0-3-0-6--2--------------
  
D:----------------------------------------------------------
A:----------------------------------------------------------
F:-------------------------7-7-7-7-7-7-7-----7-7-7-7-7-7----
C:--------------------5-------------------------------------
G:--------------------3----5-5-5-5-5-5-5-8-8-5-5-5-5-5-5----
C:-0-0-0-0-0-3-0-0--0---------------------------------------
 
D:----------------------------------------------------------
A:----------------------------------------------------------
F:-13-13-7-7-7-7-7-7-----7-7-7-7----------------------------
C:-------------------------------5--------------------------
G:-11-11-5-5-5-5-5-5-8-8-5-5-5-5-3--3-----------------------
C:----------------------------------3-----------------------

D:----------------------------------------------------------
A:----------------------------------------------------------
F:----------------------------------------------------------
C:-------------------------------------------------5--------
G:-0----------0----------6---0----------0----------3--------
C:-0--0-0-0-0-0--0-0-0-0-6---0--0-0-0-0-0--0-0-0-0----------
 
D:----------------------------------------------------------
A:----------------------------------------------------------
F:----------------------------------------------------------
C:----------------------------------------------------------
G:-0----------0----------6---------------------3------------
C:-0--0-0-0-0-0--0-0-0-0-6---3-0-0--0-3-0-0--0--------------
                                               ~~~~
play 1st 3 bars of chorus then play this:
D:-----------------------/----------------------------------
A:-----------------------\----------------------------------
F:-----------------------/----------------------------------
C:-----------------------\----------------------------------
G:-------------------0---/--------------------0-------------
C:-3-0-0--0-3-0-0--0-0---\--3-0-0--0-3-0-0--0-0-------------
Calificar esta versión:
Aviso: Este fichero es trabajo propio de su transcriptor y representa su interpretación personal de la canción. El material contenido en esta página es para exclusivo uso privado, por lo que se prohibe su reproducción o retransmisión, así como su uso para fines comerciales.