Soledad, Don Tetto (tablatura)

Autor: chucho375 | 42481 visualizaciones



e|-------------------------|
B|-------------------------|
G|-55555-55555-55555-555---|
D|-55555-55555-55555-55555-|
A|-33333-33333-33333-33355-|
E|----------------------55-|

e|-------------------------------------------------|
B|---8-65-6-5---8-65-6-8---8-65-6-5---8-65-6-------|
G|-5----------5----------5----------5--------------|
D|-------------------------------------------------|
A|------------------------------------------565-65-|
E|-------------------------------------------------|
                                            |-pm--|

C5       G5           F5                G5
No queda nada por decir ya has mostrado todo lo que hay en ti
C5             G5          F5    G5
No quiero pensar cual será tu fin

Aquí entra otra vez el intro en el fondo
G5       A5             F5               G5
Te crees tan tan especial siendo igual a todas las demás
C5            A5              F5             G5
Nadie te enseño lo q es el amor andas por la vida sin
Dirección
F5        G5          C5            A5
Aparentas ser tan buena la mitad es pura mierda
F5                           G5
Vives para los demas pero yo se que estas muriendo en
     C5 G5
Soledad………
  F5           G5               C5             G5
O dime cuantas veces lo hiciste tan solo por amor
         F5        G5
Y no tan solo para divertirte
C5          G5         F5         G5
Pasaran los días pasan horas pasaran semanas
C5           G5                  F5
Y tal vez tú sigas igual como si nada de esto te importara
G5                          B|-7-9-9s11--9-11-11s13-|
Nada de esto te importara

e|-------------------------------------------------|
B|---8-65-6-5---8-65-6-8---8-65-6-5---8-65-6-------|
G|-5----------5----------5----------5--------------|
D|-------------------------------------------------|
A|------------------------------------------565-65-|
E|-------------------------------------------------|
                                            |-pm--|
C5        G5           F5             G5
Sales con el y el es feliz tampoco le importa igual q a ti
C5                G5            F5    G5
Quien lo iba a pensar que seria tu fin

Aquí entra otra vez el intro en el fondo
C5      A5            F5                G5
Se cree tan tan especial gastando el dinero de su papa
C5           A5                  F5
No sabe de amor le gusta el regatón y no vale tres
G5
Pesos ese cabron
F5            G5          C5        A5
Te trata como a una reina sabe para que eres buena
F5                              G5
Viven para los demas pero yo se que están muriendo
        C5  G5
En soledad……………

Soledad .......... o dime cuantas veces lo hiciste...
e|---------------------------------------------------------|
B|-7-9-11--9-7---9-11-13--11-9---13-11-9--7p9---5-7-9--7-5-| x3
G|---------------------------------------------------------|
D|---------------------------------------------------------|
A|---------------------------------------------------------|
E|---------------------------------------------------------|

  F5           G5               C5             G5
O dime cuantas veces lo hiciste tan solo por amor
         F5        G5
Y no tan solo para divertirte
C5          G5         F5         G5
Pasaran los días pasan horas pasaran semanas
C5           G5                  F5
Y tal vez tú sigas igual como si nada de esto te importara
G5
Nada de esto te importara

Como si nada de esto te importara...
e|-------------------------------------------------------------|
B|-7-9-9s11--9-11-11s13----------------------------------------|
G|----------------------5555-5555-5555-55---5555-5555-5555-55--|
D|----------------------5555-5555-5555-5555-5555-5555-5555-555-|
A|----------------------3333-3333-3333-3355-3333-3333-3333-335-|
E|---------------------------------------33------------------3-|

(pick slide)

SOLO:
e|----------------------------------------------|
B|---------------------------------8---68---5-6-|
G|-6f8-6-5-6--6f8-6-5-6--6f8-6-5-6---6----6-----|
D|----------------------------------------------|
A|----------------------------------------------|
E|----------------------------------------------|

E|---------------------------------------8-10-|
B|----------------------------------8-10------|
G|-6f8-6-5---6f8-6-5-----------8-10-----------|
D|---------6---------8-----7-9----------------|
A|---------------------7-9--------------------|
E|--------------------------------------------|
                       |---pm--|
e|-10-12-----------------------------------------------------------|
B|---------15-17-15-14-14p15--13-15-13-12-12p13--11-13-11-10-10p11-|
G|-----------------------------------------------------------------|
D|-----------------------------------------------------------------|
A|-----------------------------------------------------------------|
E|-----------------------------------------------------------------|

e|-------------------------------18------17----15----14----13----12---|
B|-12-14-15--17-17s19-17-15v--15----1515----15----14----13----12---11-|
G|--------------------------------------------------------------------|
D|--------------------------------------------------------------------|
A|--------------------------------------------------------------------|
E|--------------------------------------------------------------------|

E|----------------------------------------|(ESTA PARTE DEL SOLO
B|-13~~---11~~------7-9-9s11--9-11-11s13--| SE HACE DEBAJO DE
G|----------------------------------------| LA VOZ )
D|----------------------------------------|
A|----------------------------------------|
E|----------------------------------------|

F5            G5          C5        A5
Te trata como a una reina sabe para que eres buena……
F5                              G5
Viven para los demas pero yo se que están muriendo
                       C5
Juntos morirán en soledad…………
  F5           G5                C5             G5
O dime cuantas veces lo hiciste  tan solo por amor
         F5         G5
Y no tan solo para divertirte
C5           G5        F5         G5
Pasaran los días pasan horas pasaran semanas
C5                               F5
Y tal vez tú sigas igual como si nada de esto te importara
G5                        F5
Nada de esto te importara nada de esto te importara
G5                         C5   G5
Nada de esto te importara…………….

FINAL:
e|------------------------------------------|
B|-7-9-9s11--9-11-11s13---------------------|
G|----------------------5555-5555-5555-55---|
D|----------------------5555-5555-5555-5555-|
A|----------------------3333-3333-3333-3355-|
E|---------------------------------------33-|

E|-----------------------------------------|
B|-----------------------------------------|
G|-5--5s7s5-5s7s5-5-7-5-4-5-4-3-5-0-2-0----|
D|--------------------------------------3--|
A|-----------------------------------------|
E|-----------------------------------------|

ACORDES
E|----X----X----X----X----| f = full
B|----X----X----X----X----| p = pull off
G|----X----X----X----5----| h = hammer on
D|----3----5----7----5----| s = slide
A|----3----5----7----3----| ~ = let ring
E|----1----3----5----X----|
      F5   G5   A5   C5






Calificar esta versión:
Aviso: Este fichero es trabajo propio de su transcriptor y representa su interpretación personal de la canción. El material contenido en esta página es para exclusivo uso privado, por lo que se prohibe su reproducción o retransmisión, así como su uso para fines comerciales.