Quisiera, Don Tetto (tablatura)

Autor: Anónimo | 22701 visualizaciones



BUENO PARA LOS Q LA PEDIAN AHI SE LAS DEJO
ME HICIERON FALTA MUY POCOS RIFFS
espero q la entiendan......

Intro: X2
  F#m                           A
e|----------------------------|----------------------------|
B|/7-7-5-5-7-7-5-5-7-7-5-5-7-5|/7-7-5-5-7-7-5-5-7-7-5-5-7-5|
G|----------------------------|----------------------------|
D|----------------------------|----------------------------|

Bm                     F#m
e|----|------------------|-------------|
B|/7--|/6---4---2--------|/6---4------|
G|----|---------------/4-|-------------|
D|----|------------------|-------------|

     F#m                      A
D|4--2--4--2--4--2--4--|X2
  Quiero escapar de esta maldita ciudad
           Bm                      F#m
          D|4--2--4--2--4--2--4--|X2
Quiero dejar de pensar en lo de siempre
        F#m                         A
        E|7--7--7--7--9--9--9--9|X2
Tengo miedo a fracasar no creo que pueda aguantar
       Bm                        F#m
   E|7--7--7--7--9--9--9--9--7--7--7--7-/-9--9--9--9|
Y dejar que todo sea cuestión de suerte

PRECORO:
  A5                    F#5
B|------------10-10-10------------7--7--|
G|------------13-13-13------------10-10-|
  Y empiezo          a dudar de mí
   A5          F#5
B|---10-10-10----------7--7---7-|
G|---13-13-13----------10-10-10-|
No puedo alcanzar
A5                      F#5                      E5
B|-------10-10-10-----------------7--7--7--|
G|-------13-13-13-----------------10-10-10-|
Presiento    que el destino se ha vuelto a burlar
D|2-0-----|
A|----2-4-|
E5 -B5-C#5
Hoy de mí
                   B|--------2|
G|------1-2-|      G|--1-2-4--|
D|2-2-4-----|      D|2--------|
Guitarra II         guitarra I

CORO:
F#5     D5
   No entiendo
       A5            C#5
                      e|/7-7--/9(2)-|
Lo que debo hacer para no terminar
F#5     D5
   Mintiendo
    A5          C#5            F#5
Aparento que nada de esto es real
        D5           A5
Sigo buscando la verdad
         E5           C#5
                         e|9-10-9-7-5-|
Negando que debo escapar
           E5
Todo está mal


Intro: .... x1

(La segunda estrofa lleva los mismos arreglos)

F#m                       A
Voy a explotar mi mente quiere volar
         Bm                      F#m
Es el instinto a ti mal  que se libera
           F#m                    A
Cuando no te queda más que ver la vida pasar
       Bm                      F#m
Y esperar aquel momento que deseas

PRECORO:....

CORO:.....

PUENTE:
  F#5                              F#5
D|------------------------------|-----------------------|
A|------------------------------|-----------------------|
E|-2-2-0-0-2-2-0-0-2-2-0-0-2-2-0|-2-2-0-0-2-2-0-0-2-2-0-|

  F#5                                               E5  F#5 G#5 A5
D|--------------------------------------------------------------|
A|-------------------------------------------------2---4---6---7|
E|-2-2-0-0-2-2-0-0-2-2-0-0-2-2-0-2-2-0-0-2-2-0-0-2-0---2---4---5|

SOLO:
  A5          E5          D5          E5    E5 E5 E5 A5
e|------------------------------------------7--7--7--10|
B|------------------------------------------11*11*11*9-|
G|---6--7--9-----6--7--9----7--6----------------------|
D|------------9-----------7--------7--9----------------|

  A5           E5            D5         E5                   E5 E5 E5 F#5
E|------------------------------------------16--17---19---16------------|
B|---------------9--10--12--12-----------/17---17--17---17---17-17-17-19|
G|---6--7--9--9-------------15*--/10-------------------------20-20-20-22|
D|----------------------------------------------------------------------|

CORO: .....

  F#5                            F#5                    F#5
D|------------------------------|------------------------|
A|------------------------------|------------------------|
E|-2-2-0-0-2-2-0-0-2-2-0-0-2-2-0|-2-2-0-0-2-2-0-0-2-2-0-2|

dudas a mi correo ronsan_1494@hotmail.com
saludos a a los de residencia





Calificar esta versión:
Aviso: Este fichero es trabajo propio de su transcriptor y representa su interpretación personal de la canción. El material contenido en esta página es para exclusivo uso privado, por lo que se prohibe su reproducción o retransmisión, así como su uso para fines comerciales.