Perdido En Un Lugar, Don Tetto (tablatura)

Autor: Anónimo | 44915 visualizaciones



Debido a las multiples peticiones (en realidad fue una) de esta rola
tuve que sakrla , asi k hay ta, Na mas scuchen bien la rola pa que
salga igualin. Ahh, y un saludin pa todos los del 1°C proximamente 2°C
de la facu d arki (UNACH)


ACORDES
  F#5 G#5 A5  E5  E5* A5* Em
1|---|---|---|---|---|---|---|---|
2|---|---|---|---|---|---|---|---|
3|---|---|---|-9-|-8-|---|---|-9-|
4|-4-|-6-|-7-|-9-|-9-|-6-|-2-|-9-|
5|-4-|-6-|-7-|-7-|-6-|-7-|-2-|-7-|
6|-2-|-4-|-5-|---|---|-5-|-0-|---|

Intro

- Na mas es cuestión de que escuchen la rola para saber los tiempos.


    F#5/G#5   A5      E5/E5*
e|--------------------------------------------------------|
B|--------------------------------------------------------|
G|------------------99999/8888888-------------------------|x4
D|--44444/6/7777777-99999/9999999-------------------------|
A|--44444/6/7777777-77777/6666666-------------------------|
E|--22222/4/5555555---------------------------------------|

La segunda guitarra hace esto en la segunda repetición del intro.

e|------------------------------9-12h1--------------------|
B|----------------------9-10-12---------------------------|
G|-------------------11-----------------------------------|
D|--4~~---------------------------------------------------|
A|--4~~---------------------------------------------------|
E|--2~~---------------------------------------------------|

Después de las cuatro repeticiones...

e|--------------------------------------------------------|
B|--------------------------------------------------------|
G|--------------------------------------------------------|
D|--447744774477447744774477447744777---------------------|
A|--------------------------------------------------------|
E|--------------------------------------------------------|

Al mismo tiempo

e|--------------------------------------------------------|
B|--------------------------------------------------------|
G|--------------------------------------------------------|
D|--4-4-4-4-4-4-4-4~--------------------------------------|
A|--4-4-4-4-4-4-4-4~--------------------------------------|
E|--2-2-2-2-2-2-2-2~--------------------------------------|
PM  . . . . . . . .


Verso 1
    Empiezas a buscar respuestas donde no vas a encontrar
e|--------------------------------------------------------|
B|--10~-------------------10/9~---------9/14-12-10--------|
G|---x~--------------------x/x~---------x/x---x--x--------|
D|---7~--------------------7/6~---------6/11--9--7--------|
A|--------------------------------------------------------|
E|--------------------------------------------------------|


    Mas que palabras sueltas que te llevaran a terminar
e|--------------------------------------------------------|
B|--10~-------------------10/9~---------9/14-12-10--------|
G|---x~--------------------x/x~---------x/x---x--x--------|
D|---7~--------------------7/6~---------6/11--9--7--------|
A|--------------------------------------------------------|
E|--------------------------------------------------------|

PM
F#5                 Em                A5  A5*    F#5
con eso que creas el día en que eras uno nada mas
                         Em         A5   A5*
y lo tenias todo es suficiente la felicidad.

e|--------------------------------------------------------|
B|--7-5---5-7-5---5-7-5---5-7-5-7-7h9-9h10----------------|
G|------6-------6-------6---------------------------------|
D|--------------------------------------------------------|
A|--------------------------------------------------------|
E|--------------------------------------------------------|

Al mismo tiempo...
e|--------------------------------------------------------|
B|--------------------------------------------------------|
G|--------------------------------------------------------|
D|--4-2---2-4-2---2-4-2---2-4-2-4-4h6-6h7-----------------|
A|------4-------4-------4---------------------------------|
E|--------------------------------------------------------|

Se repite el intro en el coro.(Escuchen la rola)

F#5  G#5/A5 E5
   Que pasara
        E5*           F#5    G#5     A5          E5  E5*
Cuando el dia sea muy tarde y ya no puedas regresar
F#5  G#5/A5 E5
    Para vivir
     E5*           F#5    G#5     A5             E5
necesitas comprender que hay mucho más que terminar
E5*             F#5
perdido en un lugar.


-En el segundo verso hay un efecto de guitarra.

Empieza a recorrer caminos que solo que te llevaran
al final del destino donde solamente encontraras

PM
F#5                    Em            A5  A5*   F#5
aquel supuesto amigo quien te mostraría la verdad
                              Em            A5    A5*
y ahora deseas menos  de ese todo que has dejado atrás.

e|--------------------------------------------------------|
B|--7-5---5-7-5---5-7-5---5-7-5-7-7h9-9h10----------------|
G|------6-------6-------6---------------------------------|
D|--------------------------------------------------------|
A|--------------------------------------------------------|
E|--------------------------------------------------------|

Al mismo tiempo...
e|--------------------------------------------------------|
B|--------------------------------------------------------|
G|--------------------------------------------------------|
D|--4-2---2-4-2---2-4-2---2-4-2-4-4h6-6h7-----------------|
A|------4-------4-------4---------------------------------|
E|--------------------------------------------------------|

Se repite el intro en el coro.(Escuchen la rola)

F#5  G#5/A5 E5
   Que pasara
        E5*           F#5    G#5     A5          E5  E5*
Cuando el dia sea muy tarde y ya no puedas regresar
F#5  G#5/A5 E5
    Para vivir
     E5*           F#5    G#5     A5             E5
necesitas comprender que hay mucho más que terminar
E5*             F#5
perdido en un lugar.


e|---------------------------------------------------------------|
B|-7-5-------------7-5-------------7-5-------------7-5-----------|
G|-----7-6-7-6-4-------7-6-7-6-4-------7-6-7-6-4-------7-6-7-6-4-|
D|---------------7---------------7---------------7---------------|
A|---------------------------------------------------------------|
E|---------------------------------------------------------------|


** al mismo tiempo se toca el intro otra vez (F#5,G#5,A5,E5,E5*)
SOLO
e|-14-14-14-12----12-14-12-12------------------------------------|
B|-------------14-------------14----12-12-12-14-12---------------|
G|-------------------------------14----------------14-11-14-11-14|
D|---------------------------------------------------------------|
A|---------------------------------------------------------------|
E|---------------------------------------------------------------|

e|----------12----12-14h16-12------------------------------------|
B|-12-14-14----14-------------14-12------------------------------|
G|----------------------------------14-13-11-14-14h16-16-14------|
D|---------------------------------------------------------------|
A|---------------------------------------------------------------|
E|---------------------------------------------------------------|

e|---------------------------------------------------------------|
B|---------------------------------------------------------------|
G|-14-13-14-13-14-13-11----14-13-14-13-14-13-11----14-13-14-13---|
D|----------------------14----------------------14---------------|
A|---------------------------------------------------------------|
E|---------------------------------------------------------------|

e|-------------------------10h12---------------------------------|
B|-------------------------------------15-------14-------12-14-12|
G|-14-13-14-11----11-13-14-------13-14----13-14----13-14---------|
D|-------------14------------------------------------------------|
A|---------------------------------------------------------------|
E|---------------------------------------------------------------|


F#5  G#5/A5 E5
   Que pasara
        E5*           F#5    G#5     A5          E5  E5*
Cuando el dia sea muy tarde y ya no puedas regresar
F#5  G#5/A5 E5
    Para vivir
     E5*           F#5    G#5     A5             E5
necesitas comprender que hay mucho más que terminar
E5*             F#5
perdido en un lugar.

F#5    G#5   A5             E5
    ya lo veras lo encontraras
E5*             F#5
perdido en un lugar
G#5  A5   E5  E5*
 lo suficiente

perdido en un lugar

F#5    G#5   A5             E5
    ya lo veras lo encontraras
E5*             F#5
perdido en un lugar
G#5  A5   E5  E5*
 lo suficiente
              F#5
perdido en un lu...


e|------------------------|
B|------------------------|
G|------------------------|
D|--44774477447744774~----|
A|------------------------|
E|------------------------|

e|-------------------|
B|-------------------|
G|-------------------|
D|--4-4-4-4-4~-------|
A|--4-4-4-4-4~-------|
E|--2-2-2-2-2~-------|
PM  . . . . .

hay se cuidan, spero que hayan quedado complacidos, y
bansai!!!!!!





Calificar esta versión:
Aviso: Este fichero es trabajo propio de su transcriptor y representa su interpretación personal de la canción. El material contenido en esta página es para exclusivo uso privado, por lo que se prohibe su reproducción o retransmisión, así como su uso para fines comerciales.