Miénteme Prométeme, Don Tetto (tablatura)

Autor: Anónimo | 25333 visualizaciones



Esta cancion va dedicada a Kongest!on Nasall
mi banda y tambn a una nenitha q quiero mucho...

INTRO:

G|--11~-8-9-8-6-4~--11~-8-9-8-6-4------11~-8-9-8-6-4~-
D|--------------------------------6-4~----------------

G|-6~-4-6-4-6-7-6-4~-|
D|-------------------|x2

Cuando vuelve el intro de nuevo esta ves solo se tok x1
y termina con esto

B|-12v-|

BRIDGE: ( esta parte con guitarra limpia)

...te miento sin pensar.......

e|--5/7-7-7-5-4~--5/7-7-7-5-4~-8~--5/7-7-7-5-4~--|
B|--5/7-7-7-5-4~--5/7-7-7-5-4~-8~--5/7-7-7-5-4~--|

SOLO:

G|---------8~-8-----------------------8~-11p8---------
D|--6-9-11------11~-9-8~-6-4~--6-9-11---------11-9-11-

G|---------9h11p9-8h9p8-6h7p6~--|
D|-666666~----------------------|
pm .....

Graciax expero lex guxt en mi primera tab
si exta mal pueden corregirla xD





Calificar esta versión:
Aviso: Este fichero es trabajo propio de su transcriptor y representa su interpretación personal de la canción. El material contenido en esta página es para exclusivo uso privado, por lo que se prohibe su reproducción o retransmisión, así como su uso para fines comerciales.