Historia De Un Hombre Arrepentido, Don Tetto (tablatura)

Autor: Anónimo | 33813 visualizaciones



INTRO 1:
E|---------------|--------------|---------------|--------------|
B|---------------|--------------|---------------|--------------|
G|-7-7--------x3-|--------------|-7-7---4----x3-|--------------|
D|-7-7-4-5-7-----|-7-7-75-4-5-4-|-7-7-4---7-----|-7-7-75-4-5-4-|
A|-5-5-----------|--------------|-5-5-----------|--------------|
E|---------------|--------------|---------------|--------------|

INTRO 2:
E|---------------|--------------|---------------|--------------|
B|---------------|--------------|---------------|--------------|
G|------------x3-|--------------|----44------x3-|--------------|
D|-44-55-7777----|-777-75-4-5-4-|-44----7777----|-777-75-4-5-4-|
A|---------------|--------------|---------------|--------------|
E|---------------|--------------|---------------|--------------|

D5                        A5
No se que te pasa conmigo hoy, es algo normal
B5                  A5
Te pienso mucho y te hecho de menos
D5  A5  B5  A5   G5         A5
Pero tu mi amor, No se como encender el velo
D5  A5  B5  A5   G5
De tu corazón, para mirar lo q estoy sintiendo por voz

E|---------------|--------------|---------------|--------------|
B|---------------|--------------|---------------|--------------|
G|-7-7--------x3-|--------------|----44------x3-|--------------|
D|-7-7-4-5-7-----|-7-7-75-4-5-4-|-44----7777----|-777-75-4-5-4-|
A|-5-5-----------|--------------|---------------|--------------|
E|---------------|--------------|---------------|--------------|

D5                    A5
Quiero contarte mi situación, todo anda mal
B5              A5
Mi vida apesta si tu no estas
D5                 A5
Quiero buscar una solución, algo que decir
B5                 A5
Para que nuevamente estés junto a mí

D5  A5  B5  A5   G5             A5
Pero yo mi amor, Estoy demasiado cuerdo para intentarlo
D5  A5  B5  A5 G5             A5
Y será mejor, que dejemos todo esto a un lado

D5     A5   B5
Lo siento, no fue mi intención cagarla
D5      A5    B5
Yo lo siento, ahora escucha mis palabras

A5              D5
Queda tanto por decir
B5
Se que tu no lo quieres oír
A5             D5
Sin embargo estoy aquí
B5                               (D5 A5 B5 A5) X4
Cantando esta canción que es para ti



D5                A5
Todo me recuerda a ti, era tan feliz
B5                 A5
Sin saber me estaba enamorando
D5                A5
Quiero pensar que así es mejor
B5
Todo tiene un fin
A5
Y no es como yo lo había pensado

D5  A5  B5  A5   G5             A5
Pero yo mi amor, Estoy demasiado cuerdo para intentarlo
D5  A5  B5  A5 G5             A5
Y será mejor, que dejemos todo esto a un lado

D5     A5   B5
Lo siento, no fue mi intención cagarla
D5      A5    B5
Yo lo siento, ahora escucha mis palabras

A5               D5
Ahora dime que es así
 B5
Que tú también piensas en mí
A5                D5
Y que pronto estarás aquí
B5                            (D5 A5 B5 A5) X4
Demuestra cuento amor sientes por mi


BUENO MUCHAHOS Q PASA HAY Q SEGUIR APOYANDO EL ROCK
COLOMBIANO.......... CON RESPECTO ALA CANION SOLO TOCA
RECORDAR LA SERIE DE LOS ACORDES Y YA, ESTA MUY BREVE
SI TIENEN CORRECCIONES O COSAS ASI, SOLO ESCRIBANME A
AL CORREO ROCKANDRES182@HOTMAIL.COM.........SUERTE





Calificar esta versión:
Aviso: Este fichero es trabajo propio de su transcriptor y representa su interpretación personal de la canción. El material contenido en esta página es para exclusivo uso privado, por lo que se prohibe su reproducción o retransmisión, así como su uso para fines comerciales.