Historia, Don Tetto (tablatura)

Autor: Anónimo | 23736 visualizaciones



Este Es Solo En Intro. Los Acordes Del Coro y el verso Son Los
Mismos De La Version antigua



* Palm Mute
H Hammer On
~ Nota Sostenida


E|---------------|--------------|---------------|--------------|
B|---------------|--------------|---------------|--------------|
G|-4-4-----------|--------------|---------------|--------------|
D|-6-6-3-4—6-----|-8-8----------|-4-4-----—-----|-66-44-33-11--|
A|-6-6-----------|-8-8-3-4-6----|-4-4-3-4-6-----|--------------|
E|---------------|-6-6----------|-2-2-----------|--------------|

E|---------------|--------------|---------------|--------------|
B|---------------|--------------|---------------|--------------|
G|---------------|--------------|---------------|--------------|
D|--—3h4-3h4-----|---3h4-3h4----|---3h4-3h4-----|-66-44-33-11--|
A|-44------------|-44-----------|-44—-----------|--------------|
E|-**------------|-**-----------|-**------------|--------------|


E|---------------|--------------|---------------|--------------|
B|---------------|--------------|---------------|--------------|
G|---------------|--------------|---------------|--------------|
D|-333-4-66------|-333-4-66-----|-333-4-66------|-66-44-33-11--|
A|---------------|--------------|---------------|--------------|
E|---------------|--------------|---------------|--------------|


E|---------------|--------------|---------------|--------------|
B|----6h7-6h7----|----6h7-6h7---|----6h7-6h7----|-99-77-66-44--|
G|-66------------|-66-----------|-66------------|--------------|
D|-**------------|-**-----------|-**------—-----|--------------|
A|---------------|--------------|---------------|--------------|
E|---------------|--------------|---------------|--------------|


E|---------------|--------------|---------------|--------------|
B|-4~~~~~~~~~~~~~|--------------|---------------|--------------|
G|---------------|--------------|---------------|--------------|
D|--—------------|--------------|---------—-----|--------------|
A|---------------|--------------|---------------|--------------|
E|---------------|--------------|---------------|--------------|




No se que pasa con migo hoy
Esto no es normal
Te he pensado mucho y te hecho de menos

Es tan difícil de ocultar
Quien  lo iba a pensar
Yo no creía en el amor sincero

Pero tu mi amor nunca me enseñaste a jugar el juego
De tu corazón
Y ahora mira lo que estoy sintiendo por voz

Quiero contarte mi situación todo sigue mal
Mi vida apesta si tu no estas
Debo encontrar una solución
Algo que decir, para que de nuevo este junto a mi

Pero yo mi amor, soy demasiado idiota para intentarlo
Así que por favor no dejemos todo esto a un lado

Yo lo siento nunca quise que pasara
Yo lo siento que por esto terminara todo
Queda tanto por decir se que tu no lo quieres oír
Vuelve pronto a estar aquí, y demuestra cuanto amor sientes por mi
Sientes por mi, Sientes por mi, Sientes por mi………


Pero a ti mi amor todo esto un culo te ha importado
Y me has dejado aquí tan solo y tan desesperado

Yo lo siento nunca quise que pasara
Yo lo siento que por esto terminara todo
Queda tanto por decir se que tu no lo quieres oír
Vuelve pronto a estar aquí, y demuestra cuanto amor sientes por mi
Sientes por mi, Sientes por mi, Sientes por mi………
Sientes por mi!!!


pablofore@hotmail.com





Calificar esta versión:
Aviso: Este fichero es trabajo propio de su transcriptor y representa su interpretación personal de la canción. El material contenido en esta página es para exclusivo uso privado, por lo que se prohibe su reproducción o retransmisión, así como su uso para fines comerciales.