De Nuevo En Tus Brazos, Doctor Deseo (tablatura)

Autor: Anónimo | 19364 visualizaciones



Canción grabada con motivo del 25º aniversario de la 
Aste Nagusia bilbaína. Colaboran con D.D. Robe Iniesta )
e Iñaki Uoho (Extremoduro) y Fito (Platero y tú) 

C                F                       C         F
  Ahora que el carmín tiñe el cielo de tu noche
Y la ría en silencio susurra pecados
Hoy que por supuesto hay algo para olvidar
O quizás simplemente celebro estar vivo

                 C      F                C       G
Bailando en tus calles,   me pierden tus bares

Hay vicio en el ambiente, la fiesta está caliente.....¡ay!


“Estribillo”

              Am    F                C     G
Morirse en Bilbao,    no hay nada mejor
           Am    F                   C   G                   Am
Quemar la vida      para volver a nacer     de nuevo en tus brazos
F                   C    G                    Am        F     G
   Para volver a nacer      de nuevo en tus brazos


Solo – con los acordes del “Estribillo”

E------------------------------------------------------------------------------
B------------------------------------------------------------------------------
G------------------------------------------------------------------------------
D---------0---------0---2-------0--------------0----------0---2-------0-5------
A--3-3-3----3---3-3---3-----3-3---3-----3-3-3----3----3-3---3-----3-3----------
E------------1----------------------3--------------1---------------------------

E------------------------------------------------------------------------------
B------------------------------------------------------------------------------
G------------------------------------------------------------------------------
D---------0----------0---2-------0-------------0-2-3---3-3-2-3---5-5-5-5-5-5---
A--3-3-3----3----3-3---3-----3-3---3-----3-3-3---------------------------------
E-------------1----------------------3-----------------------------------------

C                  F                    C               F
Tanto tiempo a tu lado, no quisiera marcharme
Sabes que me voy para echarte de menos
Gris escenario de pasiones y derrotas
Tú tan caprichosa: caricia o navaja.

C                  F                       C                F
  Ahora que el carmín tiñe el cielo de tu noche
Y la ría en silencio susurra pecados
Hoy que por supuesto hay algo para olvidar
O quizás simplemente celebro estar vivo

                 C       F                             C           G
Bailando en tus calles,     me pierdo en tus bares

Hay vicio en el ambiente, la fiesta está caliente.....¡ay!


“Estribillo”

Solo – éste lo dejo para quién se anime.

“Estribillo”  X 2

Bye,bye.Sex,drugs & rock n roll.jon.

Fuente original: LaCuerda
Colaborador original: jonjuayer [jonjuayer@hotmail.com]





Calificar esta versión:
Aviso: Este fichero es trabajo propio de su transcriptor y representa su interpretación personal de la canción. El material contenido en esta página es para exclusivo uso privado, por lo que se prohibe su reproducción o retransmisión, así como su uso para fines comerciales.