Cansado De Pedir Perdón, División Minúscula (bajo)

Autor: Anónimo | 15948 visualizaciones



verso
'es logico'
--------------------------------
--------------------------------
--44444-33333-00000-------------
--------------------------------

coro
------------------------------
------------------------------
--5-4-------------------------
------------------------------

estoy cansado..
------------------------------
-------------------------------
--444444-333333-000000---------
-----------------------0000000-

-------------------------------
-------------------------------
--444444-333333-000000-2222----
-------------------------------

-----------------------------------
------------------------------------
--444444-333333-000000---------------
-----------------------00000-22-33-0-

coro, pero al final esto
------------------------------------
------------------------------------
--55-44------------------
-------------------------

falle otra vez'
-----------------------------
-----------------------------
--xxx1-----------(x14)-------
-------------------------------

-------------------------------
-------------------------------
--44-333-0--44-333-7----(x2)---
-------------------------------

-------------------------------
------------------------------
--55555-33333333333-----------
-----------------------------

-----------------------------
-----------------------------
--444444-333-0--444444-333-7-
-----------------------------

coro

arriba panda





Calificar esta versión:
Aviso: Este fichero es trabajo propio de su transcriptor y representa su interpretación personal de la canción. El material contenido en esta página es para exclusivo uso privado, por lo que se prohibe su reproducción o retransmisión, así como su uso para fines comerciales.