The Game, Disturbed (tablatura)

Autor: luisvbs | 44058 visualizaciones



Album- The Sickness

Tuning- Down 1/2 Step



Intro
|------------------------------------------|
|------------------------------------------|
|---------8-----5h7------------------------|
|-0--0--0---0-0-----0-0-0-0-3h5-0-0-0-0-1--|


Chorus
|-----------------------------------------------------------------------|
|-----------------------------------------------------------------------|
|--------8-----5h7------------------------------------------------------|
|-0-0--0---0-0-----0-0-0-0-3h5-0-0-6---0-0-0---0--0---0-0-0--0--0--0-1--|


Verses 3&4
|-----9---------9---9----|
|------------------------|
|-7-7---7-7-7-7---7------|
|------------------------|


Bridge
|-----9---------9---------------------------------------|
|-------------------------------------------------------|
|-7-7---7-7---7---7-------------------------------------|
|-----------0----------0---1--1--0----0-1-2-3-2-1-2-2-3-|


Bridge
|-----9---------9---------------------------------------|
|-------------------------------------------------------|
|-7-7---7-7---7---7-------------------------------------|
|-----------0----------0---1--1--0----0-1-2-3-2-1-2-2-3-|





Comentarios del colaborador: Disturbed Live

Calificar esta versión:
Aviso: Este fichero es trabajo propio de su transcriptor y representa su interpretación personal de la canción. El material contenido en esta página es para exclusivo uso privado, por lo que se prohibe su reproducción o retransmisión, así como su uso para fines comerciales.