Stricken, Disturbed (tablatura)

Autor: daniel_metal | 31243 visualizaciones



Hay va una tablatura para los ke oigan y les guste disturbed ya ke no habia tabs xD

Intro
||---------------------------------|-----------------------------------|
||---------------------------------|-----------------------------------|
||---------------------------------|-----------------------------------|
||--0-5-7---8-7---2-3---3-5---3-6--|--0-5-7---8-7---2-3---3-5---3-3-3--|
||--0-3-5-0-8-7-0-2-3-0-3-5-0-3-6--|--0-3-5-0-8-7-0-2-3-0-3-5-0-3-3-3--|
||--0-----0-8-7-0-2-3-0-3-5-0-3-6--|--0-----0-8-7-0-2-3-0-3-5-0-3-3-3--|
PM        .     .     .     .               .     .     .     . . . .
|----------------------------------|---------------------------------------|
|----------------------------------|---------------------------------------|
|----------------------------------|--5-5-5-5-5-5-5-5--9-9-9-10-10-10-9-9--|
|--0-5-7---8-7---2-3---3-5---3-6---|--3-3-3-3-3-3-3-3--7-7-7--7--7--7-7-7--|
|--0-3-5-0-8-7-0-2-3-0-3-5-0-3-6---|--3-3-3-3-3-3-3-3--7-7-7--7--7--7-7-7--|
|--0-----0-8-7-0-2-3-0-3-5-0-3-6---|--3-3-3-3-3-3-3-3--7-7-7--7--7--7-7-7--|
PM       .     .     .     .   
   
Verse 2x
||--------------------|--------------------|--------------------|
||--------------------|--------------------|--------------------|
||--------------------|--------------------|--------------------|
||--------------------|--------------------|--------------------|
||--0-00-00-00-00-35--|--0-00-00-0-0350333-|--0-00-00-00-00-35--|
||--0-00-00-00-00-35--|--0-00-00-0-0350333-|--0-00-00-00-00-35--|
PM  . .. .. .. .. ..     . .. .. .........    . .. .. .. .. ..
                                                                
|-------------------------------------|
|-------------------------------------|
|--5-5-5-5-5-5-5-5--9-9-9-10-10-10-9--|
|--3-3-3-3-3-3-3-3--7-7-7--7--7--7-7--|
|--3-3-3-3-3-3-3-3--7-7-7--7--7--7-7--|
|--3-3-3-3-3-3-3-3--7-7-7--7--7--7-7--|

Chorus 2x
||--------------------------|-----------------------------|
||--------------------------|-----------------------------|
||------5-1010101010101010--|------5-1010101012-12-12-12--|
||--0--03-8-8-8-8-8-8-8-8---|--0--03-8-8-8-8-10-10-10-10--|
||--0--03-8-8-8-8-8-8-8-8---|--0--03-8-8-8-8-10-10-10-10--|
||--0--03-8-8-8-8-8-8-8-8---|--0--03-8-8-8-8-10-10-10-10--|
PM     .                          .

|--------------------------|----------------|
|--------------------------|----------------|
|------5-1010101010101010--|-5-5-5-777-7777-|
|--0--03-8-8-8-8-8-8-8-8---|-3-3-3-555-5555-|
|--0--03-8-8-8-8-8-8-8-8---|-3-3-3-555-5555-|
|--0--03-8-8-8-8-8-8-8-8---|-3-3-3-555-5555-|
PM    .                            ..  ....

||--------------------------|-----------------------------|
||--------------------------|-----------------------------| 
||------5-1010101010101010--|------5-1010101012-12-12-12--| 
||--0--03-8-8-8-8-8-8-8-8---|--0--03-8-8-8-8-10-10-10-10--| 
||--0--03-8-8-8-8-8-8-8-8---|--0--03-8-8-8-8-10-10-10-10--|  
||--0--03-8-8-8-8-8-8-8-8---|--0--03-8-8-8-8-10-10-10-10--|  
PM     .                          .

|-------------------------|----------------|
|-------------------------|----------------|
|-----101010101010101010--|-5-555-777-7777-|
|-0-3-8-8-8-8-8-8-8-8-8---|-3-333-555-5555-|
|-0-3-8-8-8-8-8-8-8-8-8---|-3-333-555-5555-|
|-0-3-8-8-8-8-8-8-8-8-8---|-3-333-555-5555-|
PM                                ..  ....

Lead into Verse
||---------------------------------|---------------------------------|
||---------------------------------|---------------------------------|
||---------------------------------|---------------------------------|
||--0-5-7---8-7---2-3---3-5---3-6--|--0-5-7---8-7---2-3---3-5--------|
||--0-3-5-0-8-7-0-2-3-0-3-5-0-3-6--|--0-3-5-0-8-7-0-2-3-0-3-5-0-5~~~-|
||--0-----0-8-7-0-2-3-0-3-5-0-3-6--|--0-----0-8-7-0-2-3-0-3-5-0------|
PM        .     .     .     .               .     .     .     . 
PH                                                              .

|----------------------------------|---------------------------------------|
|----------------------------------|---------------------------------------|
|----------------------------------|--5-5-5-5-5-5-5-5--9-9-9-10-10-10-9-9--|
|--0-5-7---8-7---2-3---3-5---3-6---|--3-3-3-3-3-3-3-3--7-7-7--7--7--7-7-7--|
|--0-3-5-0-8-7-0-2-3-0-3-5-0-3-6---|--3-3-3-3-3-3-3-3--7-7-7--7--7--7-7-7--|
|--0-----0-8-7-0-2-3-0-3-5-0-3-6---|--3-3-3-3-3-3-3-3--7-7-7--7--7--7-7-7--|
PM       .     .     .     . 

Verse 2
||--------------------|--------------------|--------------------|
||--------------------|--------------------|--------------------|
||--------------------|--------------------|--------------------|
||--------------------|--------------------|--------------------|
||--0-00-00-00-00-35--|--0-00-00-0-0350333-|--0-00-00-00-00-35--|
||--0-00-00-00-00-35--|--0-00-00-0-0350333-|--0-00-00-00-00-35--|
PM  . .. .. .. .. ..     . .. .. .........    . .. .. .. .. ..
                                                                
|-------------------------------------|
|-------------------------------------|
|--5-5-5-5-5-5-5-5--9-9-9-10-10-10-9--|
|--3-3-3-3-3-3-3-3--7-7-7--7--7--7-7--|
|--3-3-3-3-3-3-3-3--7-7-7--7--7--7-7--|
|--3-3-3-3-3-3-3-3--7-7-7--7--7--7-7--|

||--------------------|--------------------|--------------------|
||--------------------|--------------------|--------------------|
||--------------------|--------------------|--------------------|
||--------------------|--------------------|--------------------|
||--0-00-00-00-00-35--|--0-00-00-0-0350333-|--0-00-00-00-00-35--|
||--0-00-00-00-00-35--|--0-00-00-0-0350333-|--0-00-00-00-00-35--|
                                                                
|-------------------------------------|
|-------------------------------------|
|--5-5-5-5-5-5-5-5--9-9-9-10-10-10-9--|
|--3-3-3-3-3-3-3-3--7-7-7--7--7--7-7--|
|--3-3-3-3-3-3-3-3--7-7-7--7--7--7-7--|
|--3-3-3-3-3-3-3-3--7-7-7--7--7--7-7--|

Chorus

Bridge
||--------------------------------------------------------------|
||--------------------------------------------------------------|
||--------------------------------------------------------------|
||--------------------------------------------------------------|
||--0-000-00-00-00-0-000-00-00-00-0-000-00-00-00-0-000-00-00-00-|
||--0-000-00-00-00-0-000-00-00-00-0-000-00-00-00-0-000-00-00-00-|
PM     .   .    ..    .   .    ..    .   .    ..    .   .    ..   

Solo- full credit to M@G on the solo
|------------------------------------|-----------------------------------------|
|--13b-----13~--------------13-17-17b|-17-15--------------------------------10~|
|------------------12/14-------------|--------14--------10-12-12r-10--------10~|
|------------------------------------|------------9/12------------------12-----|
|------------------------------------|-----------------------------------------|
|------------------------------------|-----------------------------------------|

|---------------------------------------------|
|----------------10~-------------10~----------|
|----------------10~-------------10~----------|
|---12-10-12-12------12-10-12--------12-10-12-|
|---------------------------------------------|
|---------------------------------------------|
PM  .  .  .  .       .  .  .         .  .  .

|-------------------------------12h13p12-|
|--12r--12r--12r--12r--10~---------------|
|--12r--12r--12r--12r--10~---------------|
|----------------------------------------|
|----------------------------------------|
|----------------------------------------|

|-------------------15b--15p13-15/17-------20b--20~--17~--18-17---------------|
|-----13--------13--------------------15~------------------------18-----------|
|--------12~-12-------------------------------------------------------17-19b--|
|-----------------------------------------------------------------------------|
|-----------------------------------------------------------------------------|
|-----------------------------------------------------------------------------|

|-----------------------------------------------------|
|----------------gradual bend-------------------------|
|---19b19b19b19b19b19b19b19b19b19b19b19r--19p17h19~---|
|-----------------------------------------------------|
|-----------------------------------------------------|
|-----------------------------------------------------|

|---------------------------------|
|--------------------13------10---|
|------7/10-12-12b-------12r------|
|---------------------------------|
|---------------------------------|
|---------------------------------|

|--13p10-12p10-------13p10-12p10-------13p10-12p10-------13p10-12p10----------|
|--------------13p10-------------13p10-------------13p10-------------13p10----|
|-----------------------------------------------------------------------------|
|-----------------------------------------------------------------------------|
|-----------------------------------------------------------------------------|
|-----------------------------------------------------------------------------|

|-13p10-12p10--------13p10-15p10-13p10-------15p10-13p10--------15p10-13p10---|
|--------------13p10-------------------13p10-------------13p10----------------|
|-----------------------------------------------------------------------------|
|-----------------------------------------------------------------------------|
|-----------------------------------------------------------------------------|
|-----------------------------------------------------------------------------|

|-------15p10-13p10--------15p10-13p10-------15--|
|-13p10------------13p10---------------13p10-----|
|------------------------------------------------|
|------------------------------------------------|
|------------------------------------------------|
|------------------------------------------------|

|------------------------------------------------|
|--10-------10-------10-------10-----------------|
|-----10-12----10-12----10-12-----------9r-------|
|--------------------------------10-12-----------|
|------------------------------------------------|
|------------------------------------------------|

|------------------------------------------------------------|
|------------------------------------------------------------|
|--17b-14-15-14-12-14-13-12----12-13-12----12-14-15-14-12----|
|--------------------------15-----------15----------------15-|
|------------------------------------------------------------|
|------------------------------------------------------------|

|----------------------------|
|----------------------------|
|12-14-15-14-12--------------|
|---------------14-15---12~--|
|----------------------------|
|----------------------------|

Verse
||--------------------|--------------------|--------------------|
||--------------------|--------------------|--------------------|
||--------------------|--------------------|--------------------|
||--------------------|--------------------|--------------------|
||--0-00-00-00-00-35--|--0-00-00-0-0350333-|--0-00-00-00-00-35--|
||--0-00-00-00-00-35--|--0-00-00-0-0350333-|--0-00-00-00-00-35--|
                                                                
|-------------------------------------|
|-------------------------------------|
|--5-5-5-5-5-5-5-5--9-9-9-10-10-10-9--|
|--3-3-3-3-3-3-3-3--7-7-7--7--7--7-7--|
|--3-3-3-3-3-3-3-3--7-7-7--7--7--7-7--|
|--3-3-3-3-3-3-3-3--7-7-7--7--7--7-7--|

||--------------------|--------------------|--------------------|
||--------------------|--------------------|--------------------|
||--------------------|--------------------|--------------------|
||--------------------|--------------------|--------------------|
||--0-00-00-00-00-35--|--0-00-00-0-0350333-|--0-00-00-00-00-35--|
||--0-00-00-00-00-35--|--0-00-00-0-0350333-|--0-00-00-00-00-35--|
                                                                
|-------------------------------------|
|-------------------------------------|
|--5-5-5-5-5-5-5-5--9-9-9-10-10-10-9--|
|--3-3-3-3-3-3-3-3--7-7-7--7--7--7-7--|
|--3-3-3-3-3-3-3-3--7-7-7--7--7--7-7--|
|--3-3-3-3-3-3-3-3--7-7-7--7--7--7-7--|

Chorus 2x

after Chorus
|-------------------------------------------|
|-------------------------------------------|
|--7-7-7-7-7-6-6-6-6-6-7-7-7-7-7-6-6-6-6-6--|
|--5-5-5-5-5-4-4-4-4-4-5-5-5-5-5-4-4-4-4-4--|
|--5-5-5-5-5-4-4-4-4-4-5-5-5-5-5-4-4-4-4-4--|
|--5-5-5-5-5-4-4-4-4-4-5-5-5-5-5-4-4-4-4-4--|

Outro
||---------------------------------|----------------------------------|
||---------------------------------|----------------------------------|
||---------------------------------|----------------------------------|
||--0-5-7---8-7---2-3-3-3-3-3-3-6--|--0-5-7---8-7---2-3-3-3-3-3-3-3---|
||--0-3-5-0-8-7-0-2-3-3-3-3-3-3-6--|--0-3-5-0-8-7-0-2-3-3-3-3-3-3-3---|
||--0-----0-8-7-0-2-3-3-3-3-3-3-6--|--0-----0-8-7-0-2-3-3-3-3-3-3-3---|
PM        .     .     . . . .               .     .     . . . . . .

||---------------------------------|------------------------------|
||---------------------------------|------------------------------|
||---------------------------------|------------------------------|
||--0-5-7---8-7---2-3-3-3-3-3-3-6--|--0-5-7---8-7---2-------------|
||--0-3-5-0-8-7-0-2-3-3-3-3-3-3-6--|--0-3-5-0-8-7-0-2-------------|
||--0-----0-8-7-0-2-3-3-3-3-3-3-6--|--0-----0-8-7-0-2-2.5*////4*--|
pm        .     .     . . . .               .     .

||---------------------------------|----------------------------------|
||---------------------------------|----------------------------------|
||---------------------------------|----------------------------------|
||--0-5-7---8-7---2-3-3-3-3-3-3-6--|--0-5-7---8-7---2-3-3-3-3-3-3-3---|
||--0-3-5-0-8-7-0-2-3-3-3-3-3-3-6--|--0-3-5-0-8-7-0-2-3-3-3-3-3-3-3---|
||--0-----0-8-7-0-2-3-3-3-3-3-3-6--|--0-----0-8-7-0-2-3-3-3-3-3-3-3---|
PM        .     .     . . . .               .     .     . . . . . .

||---------------------------------|----------------------------------|
||---------------------------------|----------------------------------|
||---------------------------------|----------------------------------|
||--0-5-7---8-7---2-3-3-3-3-3-3-6--|--0-5-7---8-7---2-3-3-3-3-3-3-3-0-|
||--0-3-5-0-8-7-0-2-3-3-3-3-3-3-6--|--0-3-5-0-8-7-0-2-3-3-3-3-3-3-3-0-|
||--0-----0-8-7-0-2-3-3-3-3-3-3-6--|--0-----0-8-7-0-2-3-3-3-3-3-3-3-0-|
PM        .     .     . . . .               .     .     . . . . . .






Calificar esta versión:
Aviso: Este fichero es trabajo propio de su transcriptor y representa su interpretación personal de la canción. El material contenido en esta página es para exclusivo uso privado, por lo que se prohibe su reproducción o retransmisión, así como su uso para fines comerciales.