A/c, Dildo (acordes)

Autor: Anónimo | 19696 visualizaciones

abdeffsosggsosm
*Para toda la gente a la que le late esta buena rola, trate de sacarla lo
más completa posible.
*Con colaboración de mi brother Hugo.
*DLD.



E F# B G#m

E F# G#m

[El bajeo del intro es el siguiente]

E|-------------------------------------------------------------------|
B|-------------------------------------------------------------------|
G|-------------------------------------------------------------------|
D|-2--------------4------2-------------------------------------------|
A|---2-1---1-2-4-----------2-1--1-2-4---1-2/4/6----------------------|
E|------------------4-----------------4------------------------------|


E              F#
Que nos va a pasar,
        B
cuando todo se haya ido,
     G#m
y tengamos que enfrentar,
E            F#              G#m
todos los desechos de lo que fue.


E         F#         B
Tiempo atras, su destino asi lo quizo
   G#m
volveremos a jugar,
E              F#            G#m
todo fue cuestión, guardar la fé.



A                  D
Eeeeeh podríamos ser,
                        A
dueños del planeta entero,
           D
podríamos tener,
                     A
todo cuanto te imaginas,
         D
podríamos salir,
            F      G
de este infierno, sálvame.


E|-------------------------------------------------------------------|
B|-------------------------------------------------------------------|
G|-------------------------------------------------------------------|
D|-2--------------4------2-------------------------------------------|
A|---2-1---1-2-4-----------2-1--1-2-4---1-2/4/6----------------------|
E|------------------4-----------------4------------------------------|


[En ésta parte los acordes de acompañamiento son los siguientes]

E F# B G#m

E F# G#m



E         F#
Como liberar,
      B
todos estos pensamientos
          G#m
cuando no hay con quien hablar,
E              F#
todo el mundo cambia,
            G#m
¿por qué no tú?.


E           F#
Tiempo de parar,
      B
el camino tiene huellas
       G#m
que volvemos a pisar,
E                      F#
siempre habrá un buen día,
        G#m
para volver.


A                 D
Eeeeeh podríamos ser,
                        A
dueños del planeta entero,
           D
podríamos tener,
                     A
todo cuanto te imaginas,
         D
podríamos salir,
            F      G
de este infierno, sálvame.



[Las dos líneas siguientes se tocan con el siguiente bajeo]

E|-------------------------------------------------------------------|
B|-------------------------------------------------------------------|
G|-------------------------------------------------------------------|
D|-------------------------------------------------------------------|
A|-------2~----------------2~-----------------1-2/4/6----------------|
E|-0~-2~----2-3-4~---0~-2~----2-3-4~--0~-2~-4------------------------|


Y sabré cuando vas a volver,

y esperar.


[Entra la guitarra de nuevo]

E   F#             B    G#m
Y saber cuando vas a volver
E      F#                G#m
y esperar, que llegue el día.



E F# B G#m

E F# G#m

[El bajeo del final es el siguiente]

E|-------------------------------------------------------------------|
B|-------------------------------------------------------------------|
G|-------------------------------------------------------------------|
D|-2--------------4------2-------------------------------------------|
A|---2-1---1-2-4-----------2-1--1-2-4--------------------------------|
E|------------------4-----------------4------------------------------|


® Cualquier duda o corrección a mi correo.
® Rhadex.
Calificar esta versión:
Aviso: Este fichero es trabajo propio de su transcriptor y representa su interpretación personal de la canción. El material contenido en esta página es para exclusivo uso privado, por lo que se prohibe su reproducción o retransmisión, así como su uso para fines comerciales.