1º De Octubre, Dildo (tablatura)

Autor: Anónimo | 23002 visualizaciones

haber que les parece esta version

INTRO
     Am
e |--------------------|
B |-----------2-2------|
G |-------2-2-----2-2--|
D |--------------------|   X7
A |---0-0--------------|
E |--------------------|

     E
e |--------------------|
B |-----------0-0------|
G |-------1-1-----1-1--|   x4
D |--------------------|
A |---2-2--------------|
E |--------------------|

     Am
e |--------------------|
B |-----------2-2------|
G |-------2-2-----2-2--|
D |--------------------|   X4
A |---0-0--------------|
E |--------------------|

     E
e |--------------------|
B |-----------0-0------|
G |-------1-1-----1-1--|   x4
D |--------------------|
A |---2-2--------------|
E |--------------------|

Igual que el punteo de arriba pero apagado..

Am      E       Am         E
mañana hermosa, negro atardecer,
Am        E    Am            E
cuerpo de diosa, terquedad de mujer.

Se retira el apagado y activamos distor

Am
y tomamos turnos para herirnos mucho
E
y decir que nada importa
Am
y tomamos turnos para vernos juntos
E
y decir que todo va a estar bien.

Am      E    Am         E x4

Apagado

Am      E    Am         E
mañana rosa, negro atardecer
Am               E
tu pides lo que nunca has dado
 Am         E
no lo puedes tener.

Se retira el apagado y activamos distor

Am
y tomamos turnos para herirnos mucho
E
y decir que nada importa
Am
y tomamos turnos para vernos juntos
E
y decir que todo va a estar bien.

*Con cejilla los siguientes acordes

   Gm        Dm
pero esta desecho
   Gm       Dm         Em
y hoy no queda nada por hacer.

e |------------------------------|
B |------------------------------|
G |------------------------------|
D |------------------------------|   X4
A |------------------------------|
E |----5---5-----8---8-----12----|

Am
y tomamos turnos para herirnos mucho
E
y decir que nada importa
Am
y tomamos turnos para vernos juntos
E
y decir que todo va a estar bien.

*Con cejilla los siguientes acordes

   Gm        Dm
pero esta desecho
   Gm       Dm         Em
y hoy no queda nada nada por hacer.

Zaludos Especialmente a:
AK=My Life
MemeRocks=Syster
Chris=Bebuchis
y toda la banda q le lata DLD
Calificar esta versión:
Aviso: Este fichero es trabajo propio de su transcriptor y representa su interpretación personal de la canción. El material contenido en esta página es para exclusivo uso privado, por lo que se prohibe su reproducción o retransmisión, así como su uso para fines comerciales.