El Gran Soñador, Digimon (tablatura)

Autor: AleRiot | 27472 visualizaciones



Intro:

e|----------------------------------------------------|
B|----------------------------------------------------|
G|--7--9--10--12--7--9--10--12--7--9--10--9--7--5--7--|
D|----------------------------------------------------|
A|----------------------------------------------------|
E|----------------------------------------------------|

e|----------------------------------------------------|
B|----------------------------------------------------|
G|--5--7--5--7-----5--7--5--7-----5--7--5--10--10--7--|
D|----------------------------------------------------|
A|----------------------------------------------------|
E|----------------------------------------------------|

e|------------------------------------------|
B|----------------------------5--5br--------|
G|--7--7--7--5--7----7--5--7----------7--5--|
D|------------------------------------------|
A|------------------------------------------|
E|------------------------------------------|

e|---------------------------------------------------------------|
B|----------------------------5--5br--12--12--10--8--6--2--2--2--|
G|--7--7--7--5--7----7--5--7-------------------------------------|
D|---------------------------------------------------------------|
A|---------------------------------------------------------------|
E|---------------------------------------------------------------|


Verse/Estrofa:

e|-----------------------------------|
B|-----------------------------------|
G|--------------5--7-----------------|
D|--7--7--7--7--------7--5--5--3--5--|
A|-----------------------------------|
E|-----------------------------------|


e|--------------------------------------|
B|--------------------------------------|
G|--------------------------------------|
D|--3--5--5--5--5--5--7--3--------------|
A|--------------------------5--5--3--5--|
E|--------------------------------------|

e|-----------------------------------|
B|-----------------------------------|
G|--------------5--7-----------------|
D|--7--7--7--7--------7--5--5--3--5--|
A|-----------------------------------|
E|-----------------------------------|


e|-----------------------------|
B|-----------------------------|
G|-----------------------------|
D|--3--5--5--5--5--5--7--3-----|
A|--------------------------5--|
E|-----------------------------|


e|--------------------------------------------------|
B|--------------------------------------------------|
G|--------------------5--7--7--6--6--6--6--6--7--9--|
D|--5--8--8--8--8--8--------------------------------|
A|--------------------------------------------------|
E|--------------------------------------------------|

e|---------------------------|
B|---------------------------|
G|--7--10--9--7--5--7--------|
D|---------------------7--5--|
A|---------------------------|
E|---------------------------|

e|--------------------------------------------------|
B|--------------------------------------------------|
G|--------------------5--7--7--6--6--6--6--6--7--9--|
D|--5--8--8--8--8--8--------------------------------|
A|--------------------------------------------------|
E|--------------------------------------------------|

e|------------------------------|
B|------------------------------|
G|--7--10--10--10--7--10--9--9--|
D|------------------------------|
A|------------------------------|
E|------------------------------|


Chorus/Estribillo:

e|----------------------------------------------------|
B|----------------------------------------------------|
G|--7--9--10--12--7--9--10--12--7--9--10--9--7--5-----|
D|-------------------------------------------------7--|
A|----------------------------------------------------|
E|----------------------------------------------------|

e|-----------------------------------------------|
B|-----------------------------------------------|
G|-----------2--------------------2--5--2--5--2--|
D|-----3--5--------3--5-----3--5-----------------|
A|--5-----------5--------5-----------------------|
E|-----------------------------------------------|

e|----------------------------------------------------|
B|----------------------------------------------------|
G|--7--9--10--12--7--9--10--12--7--9--10--9--7--5--7--|
D|----------------------------------------------------|
A|----------------------------------------------------|
E|----------------------------------------------------|

e|----------------------------------------------------|
B|----------------------------------------------------|
G|--5--7--5--7-----5--7--5--7-----5--7--5--10--10--7--|
D|----------------------------------------------------|
A|----------------------------------------------------|
E|----------------------------------------------------|

e|----------------------------------------------------|
B|----------------------------------------------------|
G|--7--9--10--12--7--9--10--12--7--9--10--9--7--5--7--|
D|----------------------------------------------------|
A|----------------------------------------------------|
E|----------------------------------------------------|

e|-------------------------------------------------------|
B|-------------------------------------------------------|
G|--5--7--5--7-----5--7--5--7-----10b--10b--10b--10r--7--|
D|-------------------------------------------------------|
A|-------------------------------------------------------|
E|-------------------------------------------------------|


Outro:

e|------------------------------------------|
B|----------------------------5--5br--------|
G|--7--7--7--5--7----7--5--7----------7--5--|
D|------------------------------------------|
A|------------------------------------------|
E|------------------------------------------|

e|------------------------------------------------------------------|
B|----------------------------5--5br--12--12--10--8--6--13--13--15--|
G|--7--7--7--5--7----7--5--7----------------------------------------|
D|------------------------------------------------------------------|
A|------------------------------------------------------------------|
E|------------------------------------------------------------------|





Calificar esta versión:
Aviso: Este fichero es trabajo propio de su transcriptor y representa su interpretación personal de la canción. El material contenido en esta página es para exclusivo uso privado, por lo que se prohibe su reproducción o retransmisión, así como su uso para fines comerciales.