Tu Igual Yo Igual, Difonia (tablatura)

Autor: valuis | 27089 visualizaciones



aki una cancion de difonia saquenla 

Intro]

|----------------------|---------------------|
|----------------------|---------------------|
|-6666--4--------------|-6666--4-------------|
|-6666--4-6--6666-4-22-|-6666--4-6--666-6p4--|  x4
|-4444--2-6--6666-4-22-|-4444--2-6--666----6-|
|---------4--4444-2-00-|---------4--444------|
             .... . ..              ...


C#5                B5
 Un dia despertaste  sin ninguna esperanza
A#5                 A5
 Como no olvidaste   perdiste la confianza
C#5                 B5
 Y que quizas un dia  todo mejorara
A#5                 A5
 Y que toda tu ira   desaparecera

C#5        A5     Em                 B5
 Caiste en una trampa de la que no puedes salir
C#5     A5     Em              B5
 Llevas una carga con la que debes convivir

C#5                   B5
 Cuando todo es oscuro  y tratas de volver
A#5                  A5
 A ese lugar seguro   donde nada puede suceder
C#5                  B5
 En un placer cerrada  un poco de afliccion
A#5                    A5
 Te sientes angustiada   por una terrible razon

C#5        A5     Em                 B5
 Caiste en una trampa de la que no puedes salir
C#5     A5     Em              B5
 Llevas una carga con la que debes convivir

A5         B5           G#5                   C#5
 Se que el mundo ha sido cruel por eso puedo entender
A5        B5    G#5         C#5
 La mirada que me das eso basta nada mas
A5        B5    G#5         C#5
 Para darme cuenta que perdiste toda la fe
A5       B5       C#5
 creeme que yo igual

C#5              B5
 El unico remedio  que puedes encontrar
A#5                 A5
 Acabas de perderlo   lo dejaste pasar
C#5                  B5
 Pero a pesar de todo  hay una solucion
A#5                 A5
 Que puede ayudarte   va acabar esta situacion

C#5        A5     Em                 B5
 Caiste en una trampa de la que no puedes salir
C#5     A5     Em              B5
 Llevas una carga con la que debes convivir

A5         B5           G#5                   C#5
 Se que el mundo ha sido cruel por eso puedo entender
A5        B5    G#5         C#5
 La mirada que me das eso basta nada mas
A5        B5    G#5         C#5
 Para darme cuenta que perdiste toda la fe
A5       B5       C#5
 creeme que yo igual


solo o punteo

  C#5           A5
|-0p9t12-[x5]--0p4t7-[x5]-|
|-------------------------|
|-------------------------|
|-------------------------|
|-------------------------|
|-------------------------|
  Em          B5                       [x2 todo]
|--------------------------|
|-0p7t10-[x5]--0p9t12-[x5]-|
|--------------------------|
|--------------------------|
|--------------------------|
|--------------------------|

   A5         B5         G#5                   C#5
|-------------------------------------------------------------|
|--9´-9-7-8-9-8-7/12v---10-10-10-999-777-999-10-10-10-999-12v-|
|-------------------------------------------------------------|
|-------------------------------------------------------------|
|-------------------------------------------------------------|
|-------------------------------------------------------------|

   A5             B5                   G#5               C#5
|-16´-14-16-14-13-14-13-14----13-14----16---------------------|
|--------------------------16---------------------------------|
|-------------------------------------------------------------|
|-------------------------------------------------------------|
|-------------------------------------------------------------|
|-------------------------------------------------------------|


A5         B5           G#5                   C#5
 Se que el mundo ha sido cruel por eso puedo entender
A5        B5    G#5         C#5
 La mirada que me das eso basta nada mas
A5        B5    G#5         C#5
 Para darme cuenta que perdiste toda la fe
A5       B5       C#5
 creeme que yo igual
A5             B5       G#5                         C#5
En medio de la noche desperte y la tarde muy extraña la encontre
A5                 B5   G#5                         C#5
preguntandome como acabe asi y sigo tan perdido estando aqui
A5              B5         G#5                         C#5
Aunque tu luna ilumina mi caminar yo se que no voy a ningun lugar
B5       A5      C#5
y yo se que tu igual

|-18v--16---|
|-----------|
|-----------|
|-----------|
|-----------|
|-----------|

q viva este grupo "difonia" tlv





Calificar esta versión:
Aviso: Este fichero es trabajo propio de su transcriptor y representa su interpretación personal de la canción. El material contenido en esta página es para exclusivo uso privado, por lo que se prohibe su reproducción o retransmisión, así como su uso para fines comerciales.