Nitro, Dick Dale (tablatura)

Autor: Teebaann | 18363 visualizaciones



|-----------------------------------------------------------------------0-|
|-------------------------------------------------------------------------|
|-------------------------------------------------------------------------|
|-------------------------------------------------------------------------|
|-------------------------------------------------------------------------|
|21\----0-12-10-13-12-10-0-12-10-13-12-10-0-12-10-13-12-10-12-12-12-12----|

|-------------------------------------------------------------------------|
|-------------------------------------------------------------------------|
|-------------------------------------------------------------------------|
|-------------------------------------------------------------------------|
|-------------------------------------------------------20\---------------|
|0-12-10-13-12-10-0-12-10-13-12-10-0-12-10-13-12-10-12--21\---------------|

|----------------------------------------------------------------0-0------|
|------------------------------------------------------------------0------|
|--------------------------------------------------------------------14---|
|-------------------------------------------------------------------------|
|-0-12-10-13-12-10-0-12-10-13-12-10-0-12-10-13-12-10-12-12121212----------|
|-------------------------------------------------------------------------|

|-------------------------------------------------------------------------|
|-------------------------------------------------------------------------|
|-------------------------------------------------------------------------|
|-------------------------------------------------------------------------|
|-------------------------------------------------------------------------|
|0-12-10-13-12-10-0-12-10-13-12-10-0-12-10-13-12-10-12121212--------------|

|-------------------------------------------------------------------------|
|-------------------------------------------------------------------------|
|-------------------------------------------------------------------------|
|-------------------------------------------------------------------------|
|----6666-9--9--9--9---12121212-------4444--7777--10101010----------------|
|7777-----11-11-11-11--14141414--5555-------9999--12121212----------------|

|--0---------------0---------------0----------------121212121212----------|
|--0---------------0---------------0--------------------------------------|
|-------------------------------------------------------------------------|
|-------------------------------------------------------------------------|
|-------------------------------------------------------------------------|
|0---10-13-12-10-0---10-13-12-10-0---10-13-12-10-12-----------------------|





Comentarios del colaborador: eee hola xd ami me suena bn xd ojala sirva

Calificar esta versión:
Aviso: Este fichero es trabajo propio de su transcriptor y representa su interpretación personal de la canción. El material contenido en esta página es para exclusivo uso privado, por lo que se prohibe su reproducción o retransmisión, así como su uso para fines comerciales.