Misirlou (pulp Fiction Theme), Dick Dale (tablatura)

Autor: The Pretender | 72245 visualizaciones



The Entire song should be played with alternate picking, as fast as your hand will move ;)

E|----------------------------------------------------------|
B|----------------------------------------------------------|
G|----------------------------------------------------------|
D|----------------------------------------------------------|
A|----------------------------------------------------------|
E|-0-0-0-0-0-0-0-1-4-5-7-8-11-8-7-(x2)----------------------|


E|----------------------------------------------------------|
B|----------------------------------------------------------|
G|----------------------------------------------------------|
D|----------------------------------------------------------|
A|----------------------------------------------------------|
E|-8-7-8-7h8p7-5--7-5-7-5h7p5-4-0-4-4-4---------------------|


E|----------------------------------------------------------|
B|----------------------------------------------------------|
G|----------------------------------------------------------|
D|----------------------------------------------------------|
A|----------------------------------------------------------|
E|-7-5-7-5h7p5-4--5-4-5-4h5p4--1-0-0-0----------------------|


E|-12(Slide all the way to 0) 0-0-0-0-0-0-0-1-4-5-7-8-11-8-7|
B|----------------------------------------------------------|
G|----------------------------------------------------------|
D|------------------------------------------------------(x2)|
A|----------------------------------------------------------|
E|----------------------------------------------------------|


E|-8-7-8-7h8p7-5--7-5-7-5h7p5-4-0-4-4-4---------------------|
B|----------------------------------------------------------|
G|----------------------------------------------------------|
D|----------------------------------------------------------|
A|----------------------------------------------------------|
E|----------------------------------------------------------|


E|-7-5-7-5h7p5-4--5-4-5-4h5p4--1-0-0-0----------------------|
B|----------------------------------------------------------|
G|----------------------------------------------------------|
D|----------------------------------------------------------|
A|----------------------------------------------------------|
E|----------------------------------------------------------|

Trumpet Solo


E|----------------------------------------------------------|
B|----------------------------------------------------------|
G|-----------0-1-2--12-4--2-4-5--8-5-8-9--------------------|
D|-2-1-2-3-4------------------------------------------------|
A|----------------------------------------------------------|
E|----------------------------------------------------------|

E|----------------------------------------------------------|
B|----------------------------------------------------------|
G|-10-9-10-9h10p9-7--9-7-9-7h9p7--5-4--7-5-7-5h7p5-4--------|
D|----------------------------------------------------------|
A|----------------------------------------------------------|
E|----------------------------------------------------------|

E|----------------------------------------------------------|
B|----------------------------------------------------------|
G|-5-4-5-4h5p4-----------------0-1--------------------------|
D|--------------3-2--2-1-2-3-4------------------------------|
A|----------------------------------------------------------|
E|----------------------------------------------------------|

E|----------------------------------------------------------|
B|----------------------------------------------------------|
G|----------------------------------------------------------|
D|----------------------------------------------------------|
A|-0--------------------------------------------------------|
E|---4-5-7--5-7-8--11-12--13-12-13-12h13p12--12-10-12-------|

E|----------------------------------------------------------|
B|----------------------------------------------------------|
G|----------------------------------------------------------|
D|----------------------------------------------------------|
A|----------------------------------------------------------|
E|-10h12p10-8-7--10-8-10-8h10p8-7--8-7-8-7-1-0--------------|

Then repeat the High E chorus and you are set! -HG





Calificar esta versión:
Aviso: Este fichero es trabajo propio de su transcriptor y representa su interpretación personal de la canción. El material contenido en esta página es para exclusivo uso privado, por lo que se prohibe su reproducción o retransmisión, así como su uso para fines comerciales.