Schörnes Mädchen Aus Dem All, Devilish (tablatura)

Autor: ragioh | 43504 visualizaciones



esta canción es demasiado fácil

coro:

e|----------------------------------------------------------------|
B|----------------------------------------------------------------|
G|----------------------------------------------------------------|
D|-5-5-5--5-5--5-5-7-7-7--7-7--7-7-9-9-9--9-9--9-9-9-9-9--9-9--9-9| 
A|-5-5-5--5-5--5-5-7-7-7--7-7--7-7-9-9-9--9-9--9-9-9-9-9--9-9--9-9|(x1)
E|-3-3-3--3-3--3-3-5-5-5--5-5--5-5-7-7-7--7-7--7-7-7-7-7--7-7--7-7|

e|---------------------------------------------------------------|
B|---------------------------------------------------------------|
G|---------------------------------------------------------------|
D|-5-5-5--5-5--5-5-7-7-7--7-7--7-7-9-9-9--9--9----9----9---9999--| (x1)
A|-5-5-5--5-5--5-5-7-7-7--7-7--7-7-9-9-9--9?-9-~--9-~--9-~-9999--|
E|-3-3-3--3-3--3-3-5-5-5--5-5--5-5-7-7-7--7--7?---7----7---7777--|

e|---------------------------------------------------------------|
B|---------------------------------------------------------------|
G|---------------------------------------------------------------|
D|-5-5-5--5-5--5-5-7-7-7--7-7--7-7-9-9-9--9--9----9----9---9999--| (x1)
A|-5-5-5--5-5--5-5-7-7-7--7-7--7-7-9-9-9--9?-9-~--9-~--9-~-9999--|
E|-3-3-3--3-3--3-3-5-5-5--5-5--5-5-7-7-7--7--7?---7----7---7777--|

e|----------------------------------------------------------------|
B|----------------------------------------------------------------|
G|----------------------------------------------------------------|
D|-5-5-5--5-5--5-5-7-7-7--7-7--7-7-9-9-9--9-9--9-9-9-9-9--9-9--9-9| 
A|-5-5-5--5-5--5-5-7-7-7--7-7--7-7-9-9-9--9-9--9-9-9-9-9--9-9--9-9|(x1)
E|-3-3-3--3-3--3-3-5-5-5--5-5--5-5-7-7-7--7-7?-7-7-7-7-7?-7-7--7-7|


Verse 1:
e|----------------------------------------------------------------------|
B|----------------------------------------------------------------------|
G|7-7-7-7--2-2-2-2--5-5-5-5-----------5-5-5-5--7-7-7-7--2-2-2-2--5-5-5-5|
D|7-7-7-7--2-2-2-2--5-5-5-5--5-5-5-5--5-5-5-5--7-7-7-7--2-2-2-2--5-5-5-5|
A|5-5-5-5-?0-0-0-0-?3-3-3-3-?5-5-5-5--3-3-3-3--5-5-5-5--0-0-0-0--3-3-3-3|
E|---------------------------3-3-3-3------------------------------------|

e|--------------------------------------------------------------------|
B|--------------------------------------------------------------------|
G|----------5-5-5-5--7-7-7-7--2-2-2-2--5-5-5-5-----------5------------|
D|-5-5-5-5--5-5-5-5--7-7-7-7--2-2-2-2--5-5-5-5?-5-5-5-5--5-~----------|
A|-5-5-5-5--3-3-3-3--5-5-5-5--0-0-0-0--3-3-3-3?-5-5-5-5--3------------|
E|-3-3-3-3--------------------------------------3-3-3-3---------------|

(Chorus)
e|----------------------------------------------------------------|
B|----------------------------------------------------------------|
G|----------------------------------------------------------------|
D|-5-5-5--5-5--5-5-7-7-7--7-7--7-7-9-9-9--9-9--9-9-9-9-9--9-9--9-9| 
A|-5-5-5--5-5--5-5-7-7-7--7-7--7-7-9-9-9--9-9--9-9-9-9-9--9-9--9-9|(x1)
E|-3-3-3--3-3--3-3-5-5-5--5-5--5-5-7-7-7--7-7--7-7-7-7-7--7-7--7-7|

e|---------------------------------------------------------------|
B|---------------------------------------------------------------|
G|---------------------------------------------------------------|
D|-5-5-5--5-5--5-5-7-7-7--7-7--7-7-9-9-9--9--9----9----9---9999--| (x1)
A|-5-5-5--5-5--5-5-7-7-7--7-7--7-7-9-9-9--9?-9-~--9-~--9-~-9999--|
E|-3-3-3--3-3--3-3-5-5-5--5-5--5-5-7-7-7--7--7?---7----7---7777--|

e|---------------------------------------------------------------|
B|---------------------------------------------------------------|
G|---------------------------------------------------------------|
D|-5-5-5--5-5--5-5-7-7-7--7-7--7-7-9-9-9--9--9----9----9---9999--| (x1)
A|-5-5-5--5-5--5-5-7-7-7--7-7--7-7-9-9-9--9?-9-~--9-~--9-~-9999--|
E|-3-3-3--3-3--3-3-5-5-5--5-5--5-5-7-7-7--7--7?---7----7---7777--|

e|----------------------------------------------------------------|
B|----------------------------------------------------------------|
G|----------------------------------------------------------------|
D|5-5-5--5-5--5-5-7-7-7--7-7--7-7--9-9-9--9-9--9-9-9-9-9--9-9--9-9| 
A|5-5-5--5-5--5-5-7-7-7--7-7--7-7--9-9-9--9-9--9-9-9-9-9--9-9--9-9|(x1)
E|3-3-3--3-3--3-3-5-5-5--5-5--5-5?-7-7-7--7-7?-7-7-7-7-7-?7-7--7-7|

Verse 2:
e|----------------------------------------------------------------------|
B|----------------------------------------------------------------------|
G|7-7-7-7--2-2-2-2--5-5-5-5-----------5-5-5-5--7-7-7-7--2-2-2-2--5-5-5-5|
D|7-7-7-7--2-2-2-2--5-5-5-5--5-5-5-5--5-5-5-5--7-7-7-7--2-2-2-2--5-5-5-5|
A|5-5-5-5-?0-0-0-0-?3-3-3-3-?5-5-5-5--3-3-3-3--5-5-5-5--0-0-0-0--3-3-3-3|
E|---------------------------3-3-3-3------------------------------------|

e|--------------------------------------------------------------------|
B|--------------------------------------------------------------------|
G|----------5-5-5-5--7-7-7-7--2-2-2-2--5-5-5-5-----------5------------|
D|-5-5-5-5--5-5-5-5--7-7-7-7--2-2-2-2--5-5-5-5?-5-5-5-5--5-~----------|
A|-5-5-5-5--3-3-3-3--5-5-5-5--0-0-0-0--3-3-3-3?-5-5-5-5--3------------|
E|-3-3-3-3--------------------------------------3-3-3-3---------------|

(Chorus)
e|----------------------------------------------------------------|
B|----------------------------------------------------------------|
G|----------------------------------------------------------------|
D|-5-5-5--5-5--5-5-7-7-7--7-7--7-7-9-9-9--9-9--9-9-9-9-9--9-9--9-9| 
A|-5-5-5--5-5--5-5-7-7-7--7-7--7-7-9-9-9--9-9--9-9-9-9-9--9-9--9-9|(x1)
E|-3-3-3--3-3--3-3-5-5-5--5-5--5-5-7-7-7--7-7--7-7-7-7-7--7-7--7-7|

e|---------------------------------------------------------------|
B|---------------------------------------------------------------|
G|---------------------------------------------------------------|
D|-5-5-5--5-5--5-5-7-7-7--7-7--7-7-9-9-9--9--9----9----9---9999--| (x1)
A|-5-5-5--5-5--5-5-7-7-7--7-7--7-7-9-9-9--9?-9-~--9-~--9-~-9999--|
E|-3-3-3--3-3--3-3-5-5-5--5-5--5-5-7-7-7--7--7?---7----7---7777--|

e|---------------------------------------------------------------|
B|---------------------------------------------------------------|
G|---------------------------------------------------------------|
D|-5-5-5--5-5--5-5-7-7-7--7-7--7-7-9-9-9--9--9----9----9---9999--| (x1)
A|-5-5-5--5-5--5-5-7-7-7--7-7--7-7-9-9-9--9?-9-~--9-~--9-~-9999--|
E|-3-3-3--3-3--3-3-5-5-5--5-5--5-5-7-7-7--7--7?---7----7---7777--|

e|----------------------------------------------------------------|
B|----------------------------------------------------------------|
G|----------------------------------------------------------------|
D|5-5-5--5-5--5-5-7-7-7--7-7--7-7--9-9-9--9-9--9-9-9-9-9--9-9--9-9| 
A|5-5-5--5-5--5-5-7-7-7--7-7--7-7--9-9-9--9-9--9-9-9-9-9--9-9--9-9|(x1)
E|3-3-3--3-3--3-3-5-5-5--5-5--5-5?-7-7-7--7-7?-7-7-7-7-7-?7-7--7-7|





Calificar esta versión:
Aviso: Este fichero es trabajo propio de su transcriptor y representa su interpretación personal de la canción. El material contenido en esta página es para exclusivo uso privado, por lo que se prohibe su reproducción o retransmisión, así como su uso para fines comerciales.