Grauer Alltag, Devilish (tablatura)

Autor: ragioh | 33100 visualizaciones



afinación neutral ( e , B , G , D , A , E , )

guitarra 1 intro:

e|-----|
B|-----|
G|--4--| aquí el rasgueo es rápido
D|--4--|
A|--2--|
E|-----|

guitarra 2 intro:

e|----------------------------------|
B|----------------------------------|
G|----------------------------------|
D|--9-9-9-9-9-9-9-9--5-5-5-5-5-5-5-5| X2
A|--9-9-9-9-9-9-9-9--5-5-5-5-5-5-5-5|
E|--7-7-7-7-7-7-7-7--3-3-3-3-3-3-3-3|

guitarra 3 intro:

e|-----------------------|
B|-----------------------|
G|-----------------------|
D|-----------------------|  X2
A|-----------------------|
E|--7~--7-7-7--3~--3-3-3-|

lo mismo del intro,es el coro XD

guitarra 1 verso:

e|------------------------------------------------|
B|------------------------------------------------|
G|------------------------------------------------|
D|------------------------------------------------|  X2
A|-------------------------------------5~---8-9~--|
E|7~-0-7-0-7--5~--0-5-0-5--5~--0-7-0-7----7-------|

guitarra 2 verso:

e|------|
B|------|
G|--4~--|
D|--4~--| aquí los rasgueos varían
A|--2~--|
E|------|

eso es todo solo se repite el verso por el coro 
hasta luego XD





Calificar esta versión:
Aviso: Este fichero es trabajo propio de su transcriptor y representa su interpretación personal de la canción. El material contenido en esta página es para exclusivo uso privado, por lo que se prohibe su reproducción o retransmisión, así como su uso para fines comerciales.